Oops, an error
Loading. Please wait.

California album bass

version 1
version 1

Album

Whole song

Interactive

6,135 views 867 this week
no commentswrite comment
1 2 3 4 5
x 3
add to favorites
×
Save as Personal and add changes to this tab that will be seen only by you. Learn more ›
×
You can save this tab as Personal to edit and correct it or add notes. All changes will be seen only by you. Learn more »
launch autoscroll
font size
0
reset
guitar tuner
edit
Autoscroll
slow
fast
+/-
esc
set tempo
stop
Tracklist:                            Tab Authors:

 1. Cynical                           D91-Marco
 2. Bored to Death                    JimBlenderBR
 3. She's out of her Mind             Red Hot Day
 4. Los Angeles                       marlonschmidt.wewer
 5. Sober                             remi.bvb  
 6. Built this Pool                   Brands99
 7. No Future                         BlenderBR
 8. Home is such a Lonely Place       Brands99
 9. Kings of the Weekend              raider00771    
10. Teenage Satellites                Brands99
11. Left Alone                        mendace
12. Rabbit Hole                       JimBlenderBR
13. San Diego                         [?]
14. The Only thing that Matters       meglizf 
15. California                        Brands99
16. Brohemian Rhapsody                drummy5

-----------------------------------------------------------------------------------------------------
                                          1. Cynical
-----------------------------------------------------------------------------------------------------
Tuning: Standard


[Intro]

G|--9--10-|--5--7--|---9--10----7---|
D|-10--12-|--7--8--|--10--12----8---|
A|--------|--------|----------------| x2
E|--------|--------|----------------|

G|-10--7--|---9--|--10-5--|---9--|
D|-12--8--|--10--|--12-7--|--10--|
A|--------|------|--------|------|
E|--------|------|--------|------|

G|--------------|-----------|--------------|------------|
D|--------------|-----------|--------------|------------|
A|--------------|-----------|--------------|------------|
E|-1-1-1-1-1-1--|-----------|-1-1-1-1-1-1--|------------|



"Aaah!"
G|-----------------------------|-----------------------------|
D|-----------------------------|-----------------------------|
A|-----------------------------|-3-3--3-3-3--3-3-3--3-3-3--3-|
E|-1-1--1-1-1--1-1-1--1-1-1--1-|-----------------------------|

G|-----------------------------|----------------------------|
D|-----------------------------|----------------------------|
A|-----------------------------|-1-1--1-1-1--1-1-1-3--1--0--|
E|-3-3--3-3-3--3-3-3--3-3-3--3-|----------------------------|



[Verse 1]

G|-----------------------------|-----------------------------|
D|-3-3--3-3-3--3-3-3--3-3-3--3-|-----------------------------|
A|-----------------------------|-3-3--3-3-3--3-3-3--3-3-3--3-|
E|-----------------------------|-----------------------------|

G|-----------------------------|-------------------------------|
D|-----------------------------|-------------------------------|
A|-----------------------------|-1-1--1-1-1--1-1-1-3-3-1-1-0-0-|
E|-3-3--3-3-3--3-3-3--3-3-3--3-|-------------------------------|

G|-----------------------------|-----------------------------|
D|-----------------------------|-----------------------------|
A|-----------------------------|-3-3--3-3-3--3-3-3--3-3-3--3-|
E|-1-1--1-1-1--1-1-1--1-1-1--1-|-----------------------------|

G|-----------------------------|-------------------------------|
D|-5-5--5-5-5--5-5-5--5-5-5--5-|-------------------------------|
A|-----------------------------|-1-1--1-1-1--1-1-1-3-3-5-5-7-7-|
E|-----------------------------|-------------------------------|



[Chorus 1]

G|---------------------------------|---------------------------------|
D|---------------------------------|---------------------------------|
A|-8-8-8-8-8-8-8-8-8-8-8-8-8-8-8-8-|-3-3-3-3-3-3-3-3-3-3-3-3-3-3-3-3-|
E|---------------------------------|---------------------------------|

G|---------------------------------|---------------------------------|
D|-5-5-5-5-5-5-5-5-5-5-5-5-5-5-5-5-|-------------------------0-0-2-2-|
A|---------------------------------|-1-1-1-0-1-1-1-0-1-1-3-3---------|
E|---------------------------------|---------------------------------|

G|---------------------------------|-----------------|--------------------|
D|-3-3-3-3-3-3-3-3-3-3-3-3-3-3-3-3-|-5-5-5-5-5-5-5-5-|-3-3--2-2--0-0--2-2-|
A|---------------------------------|-----------------|--------------------|
E|---------------------------------|-----------------|--------------------|

G|---------------------------------|------------------------------------|
D|---------------------------------|------------------------------------|
A|---------------------------------|-1-1-1-1--3-3-3-3--5-5-5-5--7-7-7-7-|
E|-3-3-3-3-3-3-3-3-3-3-3-3-3-3-3-3-|------------------------------------|

G|---------------------------------|---------------------------------|
D|---------------------------------|---------------------------------|
A|---------------------------------|-3-3-3-3-3-3-3-3-3-3-3-3-3-3-3-3-|
E|-1-1-1-1-1-1-1-1-1-1-1-1-1-1-1-1-|---------------------------------|

G|---------------------------------|---------------------------------|
D|---------------------------------|---------------------------------|
A|---------------------------------|-1-1-1-1-3-3-3-3-5-5-5-5-7-7-7-7-|
E|-3-3-3-3-3-3-3-3-3-3-3-3-3-3-3-3-|---------------------------------|

G|---------------------------------|---------------------------------|
D|---------------------------------|-5-5-5-5-5-5-5-5-5-5-5-5-5-5-5-5-|
A|---------------------------------|-3-3-3-3-3-3-3-3-3-3-3-3-3-3-3-3-|
E|-1-1-1-1-1-1-1-1-1-1-1-1-1-1-1-1-|---------------------------------|

G|-------------------------|-------------------------|-------------------|-------------|
D|-12-12-12-12-12-12-12-12-|-12-12-12-12-12-12-12-12-|-3-3-3-3-3-3-3-3-3-|--3---3---3--|
A|-10-10-10-10-10-10-10-10-|-10-10-10-10-10-10-10-10-|-1-1-1-1-1-1-1-1-1-|--1---1---1--|
E|-------------------------|-------------------------|-------------------|-------------|


[End]

G|---|
D|---|
A|---|
E|-1-|


[Prelude: Mark Hoppus & Matt Skiba]
There's a cynical feeling saying I should give up
You said everything you'll ever say
There's a moment of panic when I hear the phone ring
Anxiety's calling in my head
Is it back again? Are you back again?

{Verse}
Don't wake me up before you leave
Is there the slightest trace of what you once believed?
Woah, ohh
I feel your hand unlock the door 
Leaving fingerprints of water in the oil
Woah, ohh

(Chrous 1)
What's the point of saying sorry now?
Lost my voice while fighting my way out 
While fighting my way out
What's the point of saying sorry now?
Not sorry, not sorry, not sorry, I'm not sorry
Lost my voice while fighting my way out
Not sorry, not sorry, not sorry, I'm not sorry now



-----------------------------------------------------------------------------------------------------
                                       2. Bored to Death
-----------------------------------------------------------------------------------------------------
Tuning: Standard



[Verse 1]

G|-------------------------|------------------------|------------------------|------------------------|
D|-------------------------|------------------------|------------------------|------------------------|
A|--0--0--0--0--0--0--0--0-|-3--3--3--3--3--3--3--3-|-8--8--8--8--8--8--8--8-|-8--8--8--8--8--8--8--8-|
E|-------------------------|------------------------|------------------------|------------------------|

G|------------------------|------------------------|------------------------|------------------------|
D|------------------------|------------------------|------------------------|------------------------|
A|-0--0--0--0--0--0--0--0-|-3--3--3--3--3--3--3--3-|------------------------|------------------------|
E|------------------------|------------------------|-1--1--1--1--1--1--1--1-|-1--1--1--1--1--1--1--1-|

G|-------------------------|------------------------|-------------------------|------------------------|
D|-------------------------|------------------------|-------------------------|------------------------|
A|-0--0--0--0--0--0--0--0--|-3--3--3--3--3--3--3--3-|--8--8--8--8--8--8--8--8-|-8--8--8--8--8--8--8--8-|
E|-------------------------|------------------------|-------------------------|------------------------|

G|-------------------------|------------------------|------------------------|------------------------|
D|-------------------------|------------------------|------------------------|------------------------|
A|-0--0--0--0--0--0--0--0--|-3--3--3--3--3--3--3--3-|------------------------|------------------------|
E|-------------------------|------------------------|-1--1--1--1--1--1--1--1-|-1--1--1--1--1--1--1--1-|



[Pre-Chorus 1]


G|--------------------------|--------------------------|--------------------------|------------------------|
D|--------------------------|--------------------------|--------------------------|------------------------|
A|--0r----------------------|--Rest--------------------|--3r----------------------|-Rest-------------------|
E|--------------------------|--------------------------|--------------------------|------------------------|

G|--------------------------|
D|--------7/10--------------|
A|--3/8----------8---\3-----|
E|--------------------------|



[Chorus 1]

G|-------------------------|------------------------|------------------------|------------------------|
D|-------------------------|------------------------|------------------------|------------------------|
A|--3--3--3--3--3--3--3--3-|-3--3--3--3--3--3--3--3-|------------------------|------------------------|
E|-------------------------|------------------------|-3--3--3--3--3--3--3--3-|-3--3--3--3--3--3--3--3-|

G|-------------------------|------------------------|------------------------|------------------------|
D|-------------------------|------------------------|------------------------|------------------------|
A|-------------------------|------------------------|------------------------|------------------------|
E|--5--5--5--5--5--5--5--5-|-5--5--5--5--5--5--5--5-|-1--1--1--1--1--1--1--1-|-1--1--1--1--1--1--1--1-|

G|-------------------------|------------------------|------------------------|------------------------|
D|-------------------------|------------------------|------------------------|------------------------|
A|--3--3--3--3--3--3--3--3-|-3--3--3--3--3--3--3--3-|------------------------|------------------------|
E|-------------------------|------------------------|-3--3--3--3--3--3--3--3-|-3--3--3--3--3--3--3--3-|

G|-------------------------|------------------------|------------------------|------------------------|
D|-------------------------|------------------------|------------------------|------------------------|
A|-------------------------|------------------------|-8r---------------------|-Rest-------------------|
E|--5--5--5--5--5--5--5--5-|-5--5--5--5--5--5--5--5-|------------------------|------------------------|



[Verse 2]

G|-------------------------|------------------------|------------------------|------------------------|
D|-------------------------|------------------------|------------------------|------------------------|
A|--0--0--0--0--0--0--0--0-|-3--3--3--3--3--3--3--3-|-8--8--8--8--8--8--8--8-|-8--8--8--8--8--8--8--8-|
E|-------------------------|------------------------|------------------------|------------------------|

G|------------------------|------------------------|------------------------|------------------------|
D|------------------------|------------------------|------------------------|------------------------|
A|-0--0--0--0--0--0--0--0-|-3--3--3--3--3--3--3--3-|------------------------|------------------------|
E|------------------------|------------------------|-1--1--1--1--1--1--1--1-|-1--1--1--1--1--1--1--1-|

G|-------------------------|------------------------|-------------------------|------------------------|
D|-------------------------|------------------------|-------------------------|------------------------|
A|-0--0--0--0--0--0--0--0--|-3--3--3--3--3--3--3--3-|--8--8--8--8--8--8--8--8-|-8--8--8--8--8--8--8--8-|
E|-------------------------|------------------------|-------------------------|------------------------|

G|-------------------------|------------------------|------------------------|------------------------|
D|-------------------------|------------------------|------------------------|------------------------|
A|-0--0--0--0--0--0--0--0--|-3--3--3--3--3--3--3--3-|------------------------|------------------------|
E|-------------------------|------------------------|-1--1--1--1--1--1--1--1-|-1--1--1--1--1--1--1--1-|



[Pre-Chorus 2]

G|--------------------------|--------------------------|--------------------------|------------------------|
D|--------------------------|--------------------------|--------------------------|------------------------|
A|--0r----------------------|--Rest--------------------|--3r----------------------|-Rest-------------------|
E|--------------------------|--------------------------|--------------------------|------------------------|

G|--------------------------|
D|--------7/10--------------|
A|--3/8----------8---\3-----|
E|--------------------------|



[Chorus 2]

G|-------------------------|------------------------|------------------------|------------------------|
D|-------------------------|------------------------|------------------------|------------------------|
A|--3--3--3--3--3--3--3--3-|-3--3--3--3--3--3--3--3-|------------------------|------------------------|
E|-------------------------|------------------------|-3--3--3--3--3--3--3--3-|-3--3--3--3--3--3--3--3-|

G|-------------------------|------------------------|------------------------|------------------------|
D|-------------------------|------------------------|------------------------|------------------------|
A|-------------------------|------------------------|------------------------|------------------------|
E|--5--5--5--5--5--5--5--5-|-5--5--5--5--5--5--5--5-|-1--1--1--1--1--1--1--1-|-1--1--1--1--1--1--1--1-|

G|-------------------------|------------------------|------------------------|------------------------|
D|-------------------------|------------------------|------------------------|------------------------|
A|--3--3--3--3--3--3--3--3-|-3--3--3--3--3--3--3--3-|------------------------|------------------------|
E|-------------------------|------------------------|-3--3--3--3--3--3--3--3-|-3--3--3--3--3--3--3--3-|

G|-------------------------|------------------------|------------------------|------------------------|
D|-------------------------|------------------------|------------------------|------------------------|
A|-------------------------|------------------------|-8r---------------------|-Rest-------------------|
E|--5--5--5--5--5--5--5--5-|-5--5--5--5--5--5--5--5-|------------------------|------------------------|



[Bridge]

G|------------------------|------------------------|------------------------|------------------------|
D|------------------------|------------------------|------------------------|------------------------|
A|-3--3--3--3--3--2--2--2-|-3--3--3--3--3----------|------------------------|----------------2--2--2-|  (x6)
E|------------------------|----------------0--0--0-|-1--1--1--1--1--0--0--0-|-3--3--3--3--3----------|

G|------------------------|------------------------|------------------------|--------------------------------|
D|------------------------|------------------------|------------------------|--------------------------------|
A|-3--3--3--3--3--3--3--3-|-3--3--3--3--3--3--3--3-|-8--8--8--8--8--8--8--8-|-10--10--10--10--10--10--10--10-|
E|------------------------|------------------------|------------------------|--------------------------------|



[Chorus 3]

G|-------------------------|------------------------|-------------------------|-----------------------|
D|-------------------------|------------------------|-------------------------|-----------------------|
A|--------Rest-------------|--------Rest------------|--------Rest-------------|-------Rest------------|
E|-------------------------|------------------------|-------------------------|-----------------------|

G|-------------------------|------------------------|------------------------|------------------------|
D|-------------------------|------------------------|------------------------|------------------------|
A|-------------------------|------------------------|------------------------|------------------------|
E|--5--5--5--5--5--5--5--5-|-5--5--5--5--5--5--5--5-|-1--1--1--1--1--1--1--1-|-1--1--1--1--1--1--1--1-|

G|-------------------------|------------------------|------------------------|------------------------|
D|-------------------------|------------------------|------------------------|------------------------|
A|--3--3--3--3--3--3--3--3-|-3--3--3--3--3--3--3--3-|------------------------|------------------------|
E|-------------------------|------------------------|-3--3--3--3--3--3--3--3-|-3--3--3--3--3--3--3--3-|

G|-------------------------|------------------------|------------------------|------------------------|
D|-------------------------|------------------------|------------------------|------------------------|
A|-------------------------|------------------------|-8r---------------------|-Rest-------------------|
E|--5--5--5--5--5--5--5--5-|-5--5--5--5--5--5--5--5-|------------------------|------------------------|



[Outro]

G|------------------------|------------------------|------------------------|------------------------|
D|------------------------|------------------------|------------------------|------------------------|
A|------Rest--------------|--------Rest------------|--------Rest------------|--------Rest------------| (x2)
E|------------------------|------------------------|------------------------|------------------------|

G|------------------------|------------------------|------------------------|------------------------|
D|------------------------|------------------------|------------------------|------------------------|
A|-3--3--3--3--3--2--2--2-|-3--3--3--3--3----------|------------------------|----------------2--2--2-| (x4)
E|------------------------|----------------0--0--0-|-1--1--1--1--1--0--0--0-|-3--3--3--3--3----------|


[End Note]

G|------|
D|--5r--|
A|--3r--|
E|------|



[Verse 1: Mark Hoppus]
There's an echo pulling out the meaning
Rescuing a nightmare from a dream
The voices in my head are always screaming
That none of this means anything to me

[Pre-Chorus: Mark Hoppus]
And it's a long way back from seventeen
The whispers turn into a scream
And I... I'm not coming home

[Chorus: Matt Skiba + Mark Hoppus]
Save your breath, I'm nearly
Bored to death and fading fast
Life is too short to last long
Back on earth I'm broken
Lost and cold and fading fast
Life is too short to last long

[Verse 2: Matt Skiba]
There's a stranger staring at the ceiling
Rescuing a tiger from a tree
The pictures in her head are always dreaming
Each of them means everything to me

[Pre-Chorus: Matt Skiba]
And it's a long way back from seventeen
The whispers turn into a scream
And I... I'm not coming home

[Chorus: Mark Hoppus]
Save your breath, I'm nearly
Bored to death and fading fast
Life is too short to last long
Back on earth I'm broken
Lost and cold and fading fast
Life is too short to last long

[Bridge: Mark Hoppus]
I think I met her at the minute that the rhythm was set down
I said I'm sorry I'm a bit of a let down
But all my friends are daring me to come over
So I come over and over and over

So let me buy you a drink
And we'll pretend that you think
That I'm the man of your dreams
Come to life in a dive bar
And we'll go over and over and over
And we'll go over and over and over
And we'll go over and over and over
And we'll go over and over and over

[Chorus: Mark Hoppus]
Save your breath, I'm nearly
Bored to death and fading fast
Life is too short to last long
Back on earth I'm broken
Lost and cold and fading fast
Life is too short to last long

[Outro: Matt Skiba]
Oh oh oh oh, oh oh oh oh, oh oh oh oh
Oh oh oh oh (life is too short to last long)
Oh oh oh oh, oh oh oh oh, oh



-----------------------------------------------------------------------------------------------------
                                     3. She's out of her Mind
-----------------------------------------------------------------------------------------------------
Tuning: Standard


[Intro]

G|--------------|-----------------|--------------------------|
D|--------------|-----------------|--------------------------|
A|3-3-3-3-3-3-3-|-5-5-5-5-5-5-5-5-|-8-8-8-8-8-8-8-8-8-8/10-10|
E|--------------|-----------------|--------------------------|

G|--------------|-----------------|--------------------------|
D|--------------|-----------------|--------------------------|
A|3-3-3-3-3-3-3-|-5-5-5-5-5-5-5-5-|-8-8-8-8-8-8-8-8-8-8/10-10|
E|--------------|-----------------|--------------------------|



[Verse]

G|--------------|---------------|---------------|--------------|
D|--------------|---------------|---------------|--------------|
A|3-3-3-3-3-3-3-|---------------|---------------|--------------|
E|--------------|-3-3-3-3-3-3-3-|-5-5-5-5-5-5-5-|-3-3-3-3-3-3-3|

G|--------------|---------------|---------------|--------------|
D|--------------|---------------|---------------|--------------|
A|3-3-3-3-3-3-3-|---------------|---------------|--------------|
E|--------------|-3-3-3-3-3-3-3-|-5-5-5-5-5-5-5-|-3-3-3-3-3-3-3|

G|--------------|-----------------|--------------------------|
D|--------------|-----------------|--------------------------|
A|3-3-3-3-3-3-3-|-5-5-5-5-5-5-5-5-|-8-8-8-8-8-8-8-8-8-8/10-10|
E|--------------|-----------------|--------------------------|

G|--------------|-----------------|--------------------------|
D|--------------|-----------------|--------------------------|
A|3-3-3-3-3-3-3-|-5-5-5-5-5-5-5-5-|-8-8-8-8-8-8-8-8-8-8-8-8-8|
E|--------------|-----------------|--------------------------|



[Chorus]

G|----------------------|-------------------|-------------|
D|----------------------|-------------------|-------------|
A|3-3-3-----------------|-------------------|-------------|
E|------3-3-3-3-3-3-3-3-|-5-5-5-5-5-5-5-5-5-|-1-1--x--3-3-|

G|----------------|-----------------|-------------------|--------------|
D|----------------|-----------------|-------------------|--------------|
A|3-3-3-3-3-3-3-3-|-----------------|-------------------|--------------|
E|----------------|-3-3-3-3-3-3-3-3-|-5-5-5-5-5-5-5-5-5-|--1-1--x--3-3-|

G|--------------------|-----------------|----------------|
D|--------------------|-----------------|----------------|
A|--------------------|-----------------|-3-3-3-3-2-2-2-2|
E|1-x-1--1-x--3-x-3-3-|-5-5-5-5-5-5-5-5-|----------------|

G|----------------|-----------------|-------------------|--------------|
D|----------------|-----------------|-------------------|--------------|
A|3-3-3-3-3-3-3-3-|-----------------|-------------------|--------------|
E|----------------|-3-3-3-3-3-3-3-3-|-5-5-5-5-5-5-5-5-5-|--1-1--x--3-3-|

G|----------------|-----------------|--------------------|
D|----------------|-----------------|--------------------|
A|3-3-3-3-3-3-3-3-|-----------------|--------------------|
E|----------------|-3-3-3-3-3-3-3-3-|-1-1-1-1-1-1-1-1-1-1|

G|----------------|-----------------|-------------------|--------------|
D|----------------|-----------------|-------------------|--------------|
A|3-3-3-3-3-3-3-3-|-----------------|-------------------|--------------|
E|----------------|-3-3-3-3-3-3-3-3-|-5-5-5-5-5-5-5-5-5-|--1-1--x--3-3-|



[Verse]

G|--------------|---------------|---------------|--------------|
D|--------------|---------------|---------------|--------------|
A|3-3-3-3-3-3-3-|---------------|---------------|--------------|
E|--------------|-3-3-3-3-3-3-3-|-5-5-5-5-5-5-5-|-3-3-3-3-3-3-3|

G|--------------|---------------|---------------|--------------|
D|--------------|---------------|---------------|--------------|
A|3-3-3-3-3-3-3-|---------------|---------------|--------------|
E|--------------|-3-3-3-3-3-3-3-|-5-5-5-5-5-5-5-|-3-3-3-3-3-3-3|

G|--------------|-----------------|--------------------------|
D|--------------|-----------------|--------------------------|
A|3-3-3-3-3-3-3-|-5-5-5-5-5-5-5-5-|-8-8-8-8-8-8-8-8-8-8/10-10|
E|--------------|-----------------|--------------------------|

G|--------------|-----------------|--------------------------|
D|--------------|-----------------|--------------------------|
A|3-3-3-3-3-3-3-|-5-5-5-5-5-5-5-5-|-8-8-8-8-8-8-8-8-8-8-8-8-8|
E|--------------|-----------------|--------------------------|



[Chorus]

G|----------------------|-------------------|-------------|
D|----------------------|-------------------|-------------|
A|3-3-3-----------------|-------------------|-------------|
E|------3-3-3-3-3-3-3-3-|-5-5-5-5-5-5-5-5-5-|-1-1--x--3-3-|


G|----------------|-----------------|-------------------|--------------|
D|----------------|-----------------|-------------------|--------------|
A|3-3-3-3-3-3-3-3-|-----------------|-------------------|--------------|
E|----------------|-3-3-3-3-3-3-3-3-|-5-5-5-5-5-5-5-5-5-|--1-1--x--3-3-|

G|--------------------|-----------------|----------------|
D|--------------------|-----------------|----------------|
A|--------------------|-----------------|-3-3-3-3-2-2-2-2|
E|1-x-1--1-x--3-x-3-3-|-5-5-5-5-5-5-5-5-|----------------|

G|----------------|-----------------|-------------------|--------------|
D|----------------|-----------------|-------------------|--------------|
A|3-3-3-3-3-3-3-3-|-----------------|-------------------|--------------|
E|----------------|-3-3-3-3-3-3-3-3-|-5-5-5-5-5-5-5-5-5-|--1-1--x--3-3-|



[Bridge]

G|----------------|-----------------|--------------------|
D|----------------|-----------------|--------------------|
A|3-3-3-3-3-3-3-3-|-----------------|--------------------|
E|----------------|-3-3-3-3-3-3-3-3-|-1-1-1-1-1-1-1-1-1-1|

G|--------------|-------------------|----------------|
D|--------------|-------------------|----------------|
A|3-3-3-3-3-3-3-|-10-10-10-10-10-10-|-8-8-8-8-8-8-8-8|
E|--------------|-------------------|----------------|

G|----------------|-----------------|--------------------|
D|----------------|-----------------|--------------------|
A|3-3-3-3-3-3-3-3-|-----------------|--------------------|
E|----------------|-3-3-3-3-3-3-3-3-|-1-1-1-1-1-1-1-1-1-1|

G|------------------------|----------------------------|
D|------------------------|----------------------------|
A|3-3-3-3-3-3-3-3-3-3-3-3-|-3-3-3-3-3-3-3-3-3-3-3-3-3-3|
E|------------------------|----------------------------|



[Chorus]

G|----------------------|-------------------|-------------|
D|----------------------|-------------------|-------------|
A|3-3-3-----------------|-------------------|-------------|
E|------3-3-3-3-3-3-3-3-|-5-5-5-5-5-5-5-5-5-|-1-1--x--3-3-|

G|----------------|-----------------|-------------------|--------------|
D|----------------|-----------------|-------------------|--------------|
A|3-3-3-3-3-3-3-3-|-----------------|-------------------|--------------|
E|----------------|-3-3-3-3-3-3-3-3-|-5-5-5-5-5-5-5-5-5-|--1-1--x--3-3-|

G|--------------------|-----------------|----------------|
D|--------------------|-----------------|----------------|
A|--------------------|-----------------|-3-3-3-3-2-2-2-2|
E|1-x-1--1-x--3-x-3-3-|-5-5-5-5-5-5-5-5-|----------------|

G|----------------|-----------------|-------------------|--------------|
D|----------------|-----------------|-------------------|--------------|
A|3-3-3-3-3-3-3-3-|-----------------|-------------------|--------------|
E|----------------|-3-3-3-3-3-3-3-3-|-5-5-5-5-5-5-5-5-5-|--1-1--x--3-3-|



[Outro]

G|----------------|-----------------|--------------------|
D|----------------|-----------------|--------------------|
A|3-3-3-3-3-3-3-3-|-----------------|--------------------|
E|----------------|-3-3-3-3-3-3-3-3-|-1-1-1-1-1-1-1-1-1-1|

G|----------------|-----------------|------------------------------|
D|----------------|-----------------|------------------------------|
A|3-3-3-3-3-3-3-3-|-----------------|--------------------------3~--|
E|----------------|-3-3-3-3-3-3-3-3-|-1-1-1-1-1-1-1--1-x-3--3------|



[Verse 1: Mark Hoppus]
I said settle down, settle down everything is fine
Take your eyes off the floor
She said no I'm not, no I'm not, no I'm not alright
I lost my head on the door

[Pre-Chorus: Mark Hoppus]
She's a-a-a-antisocial, a-a-a-antisocial
A-a-and she's an angel, yeah

[Chorus: Matt Skiba & Mark Hoppus]
I'm in deep with this girl but she's out of her mind
She said "babe, I'm sorry but I'm crazy tonight"
She got a black shirt, black skirt and Bauhaus stuck in her head
I'm in deep with this girl but she's out of her mind, oh yeah
We all need something to live for, oh yeah
We all need something to live for

[Verse: Matt Skiba]
She said I let her down, let her down
I no longer dream of anything anymore
Said I'm a know-it-all, know-it-all
You make me want to scream
And threw herself on the floor

[Pre-Chorus: Matt Skiba]
She's a-a-a-antisocial, a-a-a-antisocial
A-a-a she's an angel, yeah

[Chorus: Matt Skiba & Mark Hoppus]
I'm in deep with this girl but she's out of her mind
She said "babe, I'm sorry but I'm crazy tonight"
She got a black shirt, black skirt and Bauhaus stuck in her head
I'm in deep with this girl but she's out of her mind

[Bridge: Mark Hoppus]
She's not complicated
Can't be overstated at all
She's not complicated-ated-ated at all

[Chorus: Matt Skiba & Mark Hoppus]
I'm in deep with this girl but she's out of her mind (She's out of her mind)
She said "babe, I'm sorry but I'm crazy tonight"
She got a black shirt, black skirt and Bauhaus stuck in her head
I'm in deep with this girl but she's out of her mind, oh yeah
We all need something to live for, oh yeah
We all need something to live for



-----------------------------------------------------------------------------------------------------
                                         4. Los Angeles
-----------------------------------------------------------------------------------------------------
Tuning: Standard


[Verse] 

G|---------------------------------|---------------------------------|
D|---------------------------------|---------------------------------|
A|-4-4-4-4-4-4-4-4-4-4-4-4-4-4-4-4-|-0-0-0-0-0-0-0-0-0-0-0-0-0-0-0-0-| (x4)
E|---------------------------------|---------------------------------|



[Chorus]

G|---------------------------------|---------------------------------|
D|---------------------------------|---------------------------------|
A|---------------------------------|-0-0-0-0-0-0-0-0-0-0-0-0-0-0-0-0-|
E|-2-2-2-2-2-2-2-2-2-2-2-2-2-2-2-2-|---------------------------------|

G|---------------------------------|---------------------------------------|
D|---------------------------------|---------------------------------------|
A|---------------------------------|-0-0-0-0-0-0-0-0--2-2-2-2-2-2-2-2--4-4-|
E|-2-2-2-2-2-2-2-2-2-2-2-2-2-2-2-2-|---------------------------------------|



[Verse] 

G|---------------------------------|---------------------------------|
D|---------------------------------|---------------------------------|
A|-4-4-4-4-4-4-4-4-4-4-4-4-4-4-4-4-|-0-0-0-0-0-0-0-0-0-0-0-0-0-0-0-0-|  (x6)
E|---------------------------------|---------------------------------|

G|---|
D|---|
A|-0-|
E|---|



[Chorus]

G|---------------------------------|---------------------------------|
D|---------------------------------|---------------------------------|
A|---------------------------------|-0-0-0-0-0-0-0-0-0-0-0-0-0-0-0-0-|  (x2)
E|-2-2-2-2-2-2-2-2-2-2-2-2-2-2-2-2-|---------------------------------|

G|---------------------------------|---------------------------------|
D|---------------------------------|---------------------------------|
A|-9-9-9-9-9-9-9-9-9-9-9-9-9-9-9-9-|-0-0-0-0-0-0-0-0-0-0-0-0-0-0-0-0-|
E|---------------------------------|---------------------------------|

G|---------------------------------|---------------------------------------|
D|---------------------------------|---------------------------------------|
A|-9-9-9-9-9-9-9-9-9-9-9-9-9-9-9-9-|-0-0-0-0-0-0-0-0--2-2-2-2-2-2-2-2--4~--|
E|---------------------------------|---------------------------------------|



[Bridge]

G|-9--8--6---|--9--8--6--9--|--9--8--6--|--9--8--6--|--9-9-9-9-9-9-9-9-|
D|-9--9--4---|--9--9--4--7--|--9--9--4--|--9--9--4--|--7-7-7-7-7-7-7-7-|
A|-----------|--------------|-----------|-----------|------------------|
E|-----------|--------------|-----------|-----------|------------------|

G|-----------------|-----------------|---------------------------------|
D|-----------------|-----------------|---------------------------------|
A|-----------------|-2-2-2-2-2-2-2-2-|---------------------------------|
E|-0-0-0-0-0-0-0-0-|-----------------|-2-2-2-2-2-2-2-2-2-2-2-2-2-2-2-2-|

G|-----------------|-----------------|-----------------|-----------------|
D|-----------------|-----------------|-----------------|-----------------|
A|-----------------|-2-2-2-2-2-2-2-2-|-----------------|-0-0-0-0-0-0-0-0-|
E|-0-0-0-0-0-0-0-0-|-----------------|-0-0-0-0-0-0-0-0-|-----------------|

G|-----------------|-----------------|-----------------|-----------------|
D|-----------------|-----------------|-----------------|-----------------|
A|-----------------|-6-6-6-6-6-6-6-6-|-4-4-4-4-4-4-4-4-|-0-0-0-0-0-0-0-0-|
E|-0-0-0-0-0-0-0-0-|-----------------|-----------------|-----------------|

G|-----------------|-----------------|-----------------|-----------------|
D|-----------------|-----------------|-----------------|-----------------|
A|-----------------|-2-2-2-2-2-2-2-2-|-----------------|-0-0-0-0-0-0-0-0-|
E|-0-0-0-0-0-0-0-0-|-----------------|-0-0-0-0-0-0-0-0-|-----------------|

G|-----|
D|-----|
A|-4~~~|
E|--4~~|



[Chorus]

G|---------------------------------|-----------------|------------------|
D|---------------------------------|-----------------|------------------|
A|---------------------------------|-0-0-0-0-0-0-0-0-|-9-9-9-9--7-7-7-7-|
E|-2-2-2-2-2-2-2-2-2-2-2-2-2-2-2-2-|-----------------|------------------|

G|---------------------------------|-----------------|-----------------|
D|---------------------------------|-----------------|-----------------|
A|---------------------------------|-0-0-0-0-0-0-0-0-|-2-2-2-2-2-2-2-2-|
E|-2-2-2-2-2-2-2-2-2-2-2-2-2-2-2-2-|-----------------|-----------------|

G|-----------------|------------------|-----------------|------------------|
D|-----------------|------------------|-----------------|------------------|
A|-4-4-4-4-4-4-4-4-|-6-6-6-6--7-7-7-7-|-0-0-0-0-0-0-0-0-|-9-9-9-9--7-7-7-7-|
E|-----------------|------------------|-----------------|------------------|

G|-----------------|------------------|-----------------|------------------|
D|-----------------|------------------|-----------------|------------------|
A|-4-4-4-4-4-4-4-4-|-6-6-6-6--7-7-7-7-|-0-0-0-0-0-0-0-0-|-9-9-9-9--7-7-7-7-|
E|-----------------|------------------|-----------------|------------------|

G|---------------------------------|---------------------------------|---------------------------------|
D|---------------------------------|---------------------------------|---------------------------------|
A|---------------------------------|-0-0-0-0-0-0-0-0-0-0-0-0-0-0-0-0-|-9-9-9-9-9-9-9-9-9-9-9-9-9-9-9-9-|
E|-2-2-2-2-2-2-2-2-2-2-2-2-2-2-2-2-|---------------------------------|---------------------------------|

G|-----------------|----------------------|
D|-----------------|----------------------|
A|-0-0-0-0-0-0-0-0-|-2-2-2-2-2-2-2-2--4~~-|
E|-----------------|----------------------|



[Verse 1: Matt Skiba & Mark Hoppus]
Day in day out
Up at 3AM
With the searchlights shining down
Day in day out
It's the blinding light
Underneath the dirt downtown

Listen to the sound as they bomb the sixth street bridge
Listen to the sound of the voices south of Fifth

[Chorus: Matt Skiba & Mark Hoppus]
Hey Los Angeles when will you save me?
Los Angeles when will you save me?
Los Angeles when will you save me?
Los Angeles I'm never coming home (I'm never coming home, I'm never coming)

[Verse 2: Matt Skiba & Mark Hoppus]
Come down (Come down)
I've been awake for days
Knocked out (Knocked out, knocked out)
By the sound of falling rain
Come down yeah, we'll watch the sun just burn away the sky
Watch the city lights die out up on Mulholland Drive

[Chorus: Matt Skiba]
Los Angeles when will you save me?
Los Angeles when will you save me?
Los Angeles when will you save me?
Los Angeles I'm never coming home

[Bridge: Mark Hoppus]
Wake me when this war is over
Meet me where the skyline ends
Wake me when this war is over
Meet me where the skyline ends
Wake me when this war is over
Meet me where the skyline ends

[Chorus: Matt Skiba]
Los Angeles when will you save me?
Los Angeles when will you save me?
Los Angeles when will you save me?
Los Angeles I'm never coming home
I'm never coming home
I'm never coming home
I'm never coming home
I'm never coming home



-----------------------------------------------------------------------------------------------------
                                            5. Sober
-----------------------------------------------------------------------------------------------------
Tuning: Standard


[Intro]

G|--------------|-------------|--------------------------|
D|--------------|-------------|--------------------------|   
A|--3-3-3-3-3-3-|-------------|-7-7-7-7-7-7-5-5-5-5-5-5--| (x2)
E|--------------|-3-3-3-3-3-3-|--------------------------|



[Verse]

G|--------|----------|-------|---------|
D|------5-|-------12-|-----9-|-----7---| 
A|--3-3---|-10-10----|-7-7---|-5-5-----| (x2)
E|--------|----------|-------|---------|

G|------------------|-------------------------|-----------------|------------------|
D|------------------|-------------------------|-----------------|------------------|
A|--3-3-3-3-3-3-3-3-|-10-10-10-10-10-10-10-10-|-7-7-7-7-7-7-7-7-|-5-5-5-5-5-5-5-5--| (x2)
E|------------------|-------------------------|-----------------|------------------|



[Chorus]

G|--------------|-------------|--------------------------|
D|--------------|-------------|--------------------------|  
A|--3-3-3-3-3-3-|-------------|-7-7-7-7-7-7-5-5-5-5-5-5--| (x2)
E|--------------|-3-3-3-3-3-3-|--------------------------|



[Verse]

G|--------|----------|-------|---------|
D|------5-|-------12-|-----9-|-----7---| 
A|--3-3---|-10-10----|-7-7---|-5-5-----| (x2)
E|--------|----------|-------|---------|

G|------------------|-------------------------|-----------------|------------------|
D|------------------|-------------------------|-----------------|------------------|
A|--3-3-3-3-3-3-3-3-|-10-10-10-10-10-10-10-10-|-7-7-7-7-7-7-7-7-|-5-5-5-5-5-5-5-5--| 
E|------------------|-------------------------|-----------------|------------------|

G|------------------|-------------------------|-----------------|------------------|----|
D|------------------|-------------------------|-----------------|------------------|----|
A|--3-3-3-3-3-3-3-3-|-10-10-10-10-10-10-10-10-|-7-7-7-7-7-7-7-7-|-5-5-5-5-5-5-5-5--|-5~-|
E|------------------|-------------------------|-----------------|------------------|----|


[Outro]

G|--------------|-------------|--------------------------|
D|--------------|-------------|--------------------------|  
A|--3-3-3-3-3-3-|-------------|-7-7-7-7-7-7-5-5-5-5-5-5--| (x3)
E|--------------|-3-3-3-3-3-3-|--------------------------|

G|---|
D|---|
A|-3~|
E|---|



[Chorus: Mark Hoppus]
I know I messed up and it might be over
But let me call you when I'm sober
I'm a dandelion, you're a four-leaf clover
But let me call you when I'm sober

[Verse 1: Matt Skiba]
I woke up in the pouring rain
West side Humboldt 7am
Sleeping by a dumpster to keep me dry
With the radio on and a new black eye
Because I bet you couldn't knock me out
And I guess you really got me now
Black Sedan ran a red light
Just a drunken bike messenger on Tuesday night

[Chorus: Mark Hoppus]
I know I messed up and it might be over
But let me call you when I'm sober
I'm a dandelion, you're a four-leaf clover
But let me call you when I'm sober
When I'm sober
When I'm sober

[Verse 2: Mark Hoppus]
She undressed and we stumbled downstairs
Fell on to the table as the neighbors just stared
We laughed out loud and smashed their lights
Digging with our hands in the dirt outside
And she dragged me to the edge of town
And she slapped me, then she pulled me down
I can do bad and you can do better
Spending all night getting lost together

[Chorus: Mark Hoppus]
I know I messed up and it might be over
But let me call you when I'm sober
I'm a dandelion you're a four-leaf clover
But let me call you when I'm sober

[Bridge]
Sober
Sober

[Chorus: Mark Hoppus]
I know I messed up and it might be over
But let me call you when I'm sober
I'm a dandelion you're a four-leaf clover
But let me call you when I'm sober
When I'm sober
When I'm sober
When I'm sober
When I'm sober



-----------------------------------------------------------------------------------------------------
                                       6. Built this Pool
-----------------------------------------------------------------------------------------------------
Tuning: Standard


[Intro / Chorus]

G|-----------------------|---------------|-----------------------|---------------|
D|-----------------------|---------------|-----------------------|---------------|
A|-2-2-------------------|---------------|-2-2-------------------|---------------| (x2)
E|------(0)--2--4--2--0--|-0-0-0-0-0-0-0-|------(0)--2--4--2--0--|-0-0-0-0-0-0-0-|

G|------|
D|------|
A|------|
E|-/12\-|



[Chorus: Mark Hoppus]
I wanna see some naked dudes
That's why I built this pool



-----------------------------------------------------------------------------------------------------
                                           7. No Future
-----------------------------------------------------------------------------------------------------
Tuning: Standard


[Intro]

G|---------|---------|---------|---------|
D|---------|---------|---------|---------|
A|-3-3-3---|-Rest----|-Rest----|-Rest----| (x2)
E|---------|---------|---------|---------|


[Verse 1]

G|--------|--------|--------|--------|
D|---5----|---5----|---3----|--------|
A|-3------|--------|--------|--------| 
E|--------|-3------|-1------|-1------|

G|--------|--------|--------|--------|
D|--------|--------|--------|--------|
A|---7----|---5----|---3----|--------| 
E|-5------|-3------|-1------|-1------|



[Pre-Chorus 1]

G|--------|--------|--------|--------|
D|--------|--------|--------|--------|
A|---7----|---5----|---3----|--------| 
E|-5------|-3------|-1------|-1------|

G|--------|--------|--------|--------|
D|--------|--------|--------|--------|
A|---7----|---5----|--------|--------| 
E|-5------|-3------|-1------|-Rest---|



[Chorus 1]

G|-----------------------|---------------------|--------------------------|----------------------|
D|-----------------------|---------------------|--------------------------|----------------------|
A|-8/3--3-3--3-3--3-3--2-|-0--0-0--0-0--0-0----|-------------2-2-2-3-3-3--|----------------------|
E|-----------------------|-------------------3-|-1-1-1-1-1-1--------------|-5-5-5-5/-15-15-15-15-|

G|---------------------|---------------------|--------------------------|-----------------------|
D|---------------------|---------------------|--------------------------|-----------------------|
A|-3--3-3--3-3--3-3--2-|-0--0-0--0-0--0-0----|-------------2-2-2-3-3-3--|-----------------------|  
E|---------------------|-------------------3-|-1-1-1-1-1-1--------------|-5-5-5-5-3-3-/15-15-15-|

G|-----------------|-------------------------|
D|-----------------|-------------------------|
A|-----------------|-------------------------|
E|-1-1-1-1-1-1-1-1/|-13-13-13-13-13-13-13-13-|



[Verse 2]

G|-----------------|-----------------|-----------------|-----------------|
D|-----5-----5---5-|-----------------|-----------------|-----------------|
A|-3-3---3-3---3---|-----5-----5---5-|-----------------|-----------------| 
E|-----------------|-3-3---3-3---3---|-1-1-1-1-1-1-1-1-|-1-1-1-1-1-1-1-1-|

G|-------------------------|-------------------------|--------------------|-------------------|
D|-14-------14-------14----|-12-------12-------12----|-10-----10-----10---|-------------------|
A|----12-12----12-12----12-|----10-10----10-10----10-|----8-8----8-8----8-|-----------8-8-----| 
E|-------------------------|-------------------------|--------------------|-8-8-10-10-----8-8-|



[Pre-Chorus 2]

G|-----------------|-----------------|-----------------|-----------------|
D|-----------------|-----------------|-----------------|-----------------|
A|-----------------|-----------------|-----------------|-----------------|  
E|-5-5-5-5-5-5-5-5-|-3-3-3-3-3-3-3-3-|-1-1-1-1-1-1-1-1-|-1-1-1-1-1-1-1-1-|

G|-----------------|-----------------|-----------------|-----------------|
D|-----------------|-----------------|-----------------|-----------------|
A|-----------------|-----------------|-----------------|-----------------|  
E|-5-5-5-5-5-5-5-5-|-7-7-7-7-7-7-7-7-|-1-1-1-1-1-1-1-1-|-1-1-1-1-1-1-1-1-|



[Chorus 2]

G|---------------------|---------------------|--------------------------|----------------------|
D|---------------------|---------------------|--------------------------|----------------------|
A|-3--3-3--3-3--3-3--2-|-0--0-0--0-0--0-0----|-------------2-2-2-3-3-3--|----------------------|
E|---------------------|-------------------3-|-1-1-1-1-1-1--------------|-5-5-5-5/-15-15-15-15-|

G|---------------------|---------------------|--------------------------|----------------------|
D|---------------------|---------------------|--------------------------|----------------------|
A|-3--3-3--3-3--3-3--2-|-0--0-0--0-0--0-0----|-------------2-2-2-3-3-3--|----------------------|  
E|---------------------|-------------------3-|-1-1-1-1-1-1--------------|-5-5-5-5/-15-15-15-15-|

G|-----------------------------|-----------------------------|-------------------------|---------------------|
D|-----------------------------|-----------------------------|-------------------------|---------------------|
A|-15--15-15--15-15--15-15--14-|-12--12-12--12-12--12-12--10-|-8-8-8-8-8-8-2-2-2-3-3-3-|---------------------|
E|-----------------------------|-----------------------------|-------------------------|-5-5-5-5-3-3/15-15-15|

G|---------------------|---------------------|-------------------------|-----------------------|
D|---------------------|---------------------|-------------------------|-----------------------|
A|-3--2-3--2-3--2-3--2-|---------------------|-------------2-2-2-3-3-3-|-----------------------| 
E|---------------------|-5--3-5--3-5--3-5--3-|-1-1-1-1-1-1-------------|-5-5-5-5-3-3/-15-15-15-|



[Bridge]

G|-----------------|-----------------|-----------------|-----------------|
D|-----------------|-----------------|-----------------|-----------------|
A|-----------------|-----------------|-----------------|-----------------|  
E|-Rest------------|-Rest------------|-Rest------------|-Rest------------|

G|-------------------------|-------------------------|-------------------------|-------------------------|
D|-------------------------|-------------------------|-------------------------|-------------------------|
A|-12-12-12-12-12-12-12-12-|-14-14-14-14-15-15-14-14-|-------------------------|-------------15-15-14-14-|  
E|-------------------------|-------------------------|-13-13-13-13-13-13-13-13-|-15-15-15-15-------------|

G|------------|------------|------------|------------|
D|------------|------------|------------|------------|
A|-0--0--0--0-|-0--0--0--0-|------------|-------3--2-| (x2)
E|------------|------------|-1--1--1--1-|-3--3-------|

G|-----------------|-----------------|-----------------|-----------------|
D|-----------------|-----------------|-----------------|-5-5-5-5---------|
A|-0-0-0-0-0-0-0-0-|-2-2-2-2-3-3-2-2-|-----------------|---------3-3-2-2-| 
E|-----------------|-----------------|-1-1-1-1-1-1-1-1-|-----------------|

G|-------------------------|-------------------------|-------------------------|-------------------------|
D|-------------------------|-------------------------|-------------------------|-------------------------|
A|-12-12-12-12-12-12-12-12-|-14-14-14-14-15-15-14-14-|-------------------------|-------------15-15-14-14-|  
E|-------------------------|-------------------------|-13-13-13-13-13-13-13-13-|-15-15-15-15-------------|



[Chorus 3]

G|-----------------|-----------------|------------------|---------------------------------|
D|-----------------|-----------------|------------------|---------------------------------|
A|-----------------|-----------------|------------------|---------------------------------|  
E|-Rest------------|-Rest------------|-1--1-1--1-1--1-1-|-5-5-5-5-5-5-5-5-3-3-3-3-3-3-3-3-|

G|-----------------------|---------------------|--------------------------|----------------------|
D|-----------------------|---------------------|--------------------------|----------------------|
A|-8/3--3-3--3-3--3-3--2-|-0--0-0--0-0--0-0----|-------------2-2-2-3-3-3--|----------------------|  
E|-----------------------|-------------------3-|-1-1-1-1-1-1--------------|-5-5-5-5-/15-15-15-15-|

G|-----------------------------|-----------------------------|-------------------------|---------------------|
D|-----------------------------|-----------------------------|-------------------------|---------------------|
A|-15--15-15--15-15--15-15--14-|-12--12-12--12-12--12-12--10-|-8-8-8-8-8-8-2-2-2-3-3-3-|---------------------|
E|-----------------------------|-----------------------------|-------------------------|-5-5-5-5-3-3/15-15-15|

G|---------------------|---------------------|--------------------------|-----------------------|
D|---------------------|---------------------|--------------------------|-----------------------|
A|-3--2-3--2-3--2-3--2-|---------------------|-------------2-2-2-3-3-3--|-----------------------| 
E|---------------------|-5--3-5--3-5--3-5--3-|-1-1-1-1-1-1--------------|-5-5-5-5-3-3/-15-15-15-|

[End Note]

G|----|
D|----|
A|----|
E|-1r-|



[Verse 1: Mark Hoppus]
She said tonight's a waste of time
The next day the sun will always rise
Every day that you waste
Every promise you break
Slips beneath the floor
It's a permanent state
From a moment's mistake
But life's worth so much more

[Chorus: Mark Hoppus (Matt Skiba)]
You don't know a thing about it
Hours lost to dawn from dusk
And they don't care about you
(No future!)
Let the music seal your fate, yeah
You can run, but life won't wait, yeah
They don't care about you
(No future!)

[Verse 2: Matt Skiba]
She said that it's too late to try
Someday I'll smile and say goodbye
Every night that you fight
Every demon in sight
Sleeping on the floor
Wide awake from the dream
With a shake and a scream
Hope for so much more

[Chorus: Mark Hoppus (Matt Skiba)]
You don't know a thing about it
Hours lost to dawn from dusk
And they don't care about you
(No future!)
Let the music seal your fate, yeah
You can run, but life won't wait, yeah
They don't care about you
(No future!)

[Post Chorus: Mark Hoppus and Matt Skiba]
Na, na na, na na, na na na
Na, na na, na na, na na na
They don't care about you
Na, na na, na na, na na na
Na, na na, na na, na na na
They don't care about you

[Bridge: Matt Skiba]
Where did she go?
And what did she hope to find there?
Where did she go? (Where did she go, did she go?)
And what did she hope to find there?
Where did she go, did she go, did she go?
Where did she go to find it?
Where did she go, did she go, did she go?
Where did she go to find it?

[Chorus: Mark Hoppus (Matt Skiba)]
You don't know a thing about it
Hours lost to dawn from dusk
And they don't care about you
(No future!)
Let the music seal your fate, yeah
You can run, but life won't wait, yeah
They don't care about you
(No future!)

[Outro: Mark Hoppus and Matt Skiba]
Na, na na, na na, na na na
Na, na na, na na, na na na
They don't care about you (They don't care)
Na, na na, na na, na na na
Na, na na, na na, na na na
They don't care about you (They don't care)



-----------------------------------------------------------------------------------------------------
                                   8. Home is such a Lonely Place
-----------------------------------------------------------------------------------------------------
Tuning: Standard


[Pre-Chorus 1]
(00:25)
G|----------------|-----------------|
D|----------------|-----------------|
A|--2-------2-----|--5---7--------9-|
E|------3-------3-|----------7---10-|

G|------------|-----------|-----------|-----------|
D|------------|-----------|-----------|-----------|
A|--5--5-5--5-|-----------|-----------|-----------| (x2)
E|------------|-5--5-5--5-|-7--7-7--7-|-3--3-3--3-|


[Chrous 1]

G|------------------------|
D|------------------------|
A|--5---5-7---7---------9-| 
E|--------------7---7--10-|

G|-----------|-----------|-----------|-----------|
D|-----------|-----------|-----------|-----------|
A|-2--2-2--2-|-----------|-2--2-2--2-|-----------| (x6)
E|-----------|-3--3-3--3-|-----------|-3--3-3--3-|



[Verse]

G|------------------------|
D|------------------------|
A|--5---5-7---7---------9-| (x6)
E|--------------7---7--10-|



[Pre-Chorus 2]

G|----------------|
D|----------------|
A|--2-------2-----|
E|------3-------3-|


[Chorus 2]

G|------------|-----------|-----------|-----------|
D|------------|-----------|-----------|-----------|
A|--5--5-5--5-|-----------|-----------|-----------| (x2)
E|------------|-5--5-5--5-|-7--7-7--7-|-3--3-3--3-|

G|----------------|
D|----------------|
A|--2-------2-----|
E|------3-------3-|



[Chorus 3]
(02:36)
G|------------|-----------|-----------|-----------|
D|------------|-----------|-----------|-----------|
A|--5--5-5--5-|-----------|-----------|-----------| (x2)
E|------------|-5--5-5--5-|-7--7-7--7-|-3--3-3--3-|

G|-----------|----------------|-----------|-----------------|
D|-----------|----------------|-----------|-----------------|
A|-2--2-2--2-|-/10--10-10--10-|-2--2-2--2-|-/10--10--12-----|
E|-----------|----------------|-----------|--------------10-|


[Outro]

G|--------|--------|--------|--------|--------|--------|--------|--------|
D|-----7--|-----7--|-----7--|-----7--|-----7--|-----7--|-----7--|-----7--|
A|--------|--------|--------|--------|--------|--------|--------|--------|
E|--5-----|--5-----|--5-----|--5-----|--5-----|--5-----|--5-----|--5-----|

[End Note]

G|-----|
D|-----|
A|--5~-|
E|-----|



[Verse 1: Mark Hoppus]
We're falling faster than we can fly
Forgotten seconds out on Sunset Drive
And I hold on tight but not enough to hold you back

[Pre-Chorus: Mark Hoppus]
It feels like the moon is spinning off into outer space without you
This room is such a lonely place without you

[Chorus: Matt Skiba & Mark Hoppus]
I wish that we could save today
But I know we can't stay the same
And I keep pushing you away
Don't wait for me
Don't wait for me
Home is such a lonely place without you
Home is such a lonely place

[Verse 2: Mark Hoppus & Matt Skiba]
I love the lightning but hate the rain
Tomorrows frightening but not today
Wish I could slow down time but not enough to slow you down

[Pre-Chorus: Mark Hoppus]
I feel like the moon is spinning off into outer space without you
The universe an empty place without you

[Chorus: Matt Skiba & Mark Hoppus]
I wish that we could save today
But I know we can't stay the same
And I keep pushing you away
Don't wait for me
Don't wait for me
Home is such a lonely place without you
Home is such a lonely place

[Verse 3: Mark Hoppus]
We're falling faster than we can fly
Forgotten seconds out on Sunset Drive...

[Chorus: Matt Skiba & Mark Hoppus]
I wish that we could save today
But I know we can't stay the same
And I keep pushing you away
Don't wait for me
Don't wait for me
I wish that we could save today
But I know we can't stay the same
And I keep pushing you away
Don't wait for me
Don't wait for me
Home is such a lonely place without you
Home is such a lonely place
Home is such a lonely place



-----------------------------------------------------------------------------------------------------
                                       9. Kings of the Weekend
-----------------------------------------------------------------------------------------------------
Tuning: Standard


[Verse 1]

G|---------|-----------|-----------|----------|-------|
D|---------|-----------|-----------|----------|-------|
A|---------|-----------|-----------|--3-3-3-3-|-3-3/5-| (x2)
E|-3-3-3-3-|--3-3-3-3--|--0-0-0-0--|----------|-------|



[Chorus 1]

G|----------------|-----------------|-----------------|-----------------|
D|----------------|-----------------|-----------------|-----------------|
A|----------------|-----------------|-----------------|-----------------|
E|3-3-3-3-3-3-3-3-|-3-3-3-3-3-3-3-3-|-3-3-3-3-3-3-3-3-|-3-3-3-3-2-2-2-2-|

G|----------------|-----------------|-------------------------|---------|
D|----------------|-----------------|-------------------------|-5-5-5-5-|
A|3-3-3-3-3-3-3-3-|-3-3-3-3-3-3-5-5-|-------------------------|---------|
E|----------------|-----------------|-3-3-3-3-3-3-3-3-3-3-3-3-|---------|

G|----------------|-----------------|-----------------|-----------------|
D|----------------|-----------------|-----------------|-----------------|
A|----------------|-----------------|-----------------|-----------------|
E|3-3-3-3-3-3-3-3-|-3-3-3-3-3-3-3-3-|-3-3-3-3-3-3-3-3-|-3-3-3-3-2-2-2-2-|

G|----------------|-----------------|-------------------------|-------------|
D|----------------|-----------------|-------------------------|-5--5--5--5--|
A|3-3-3-3-3-3-3-3-|-3-3-3-3-3-3-5-5-|-------------------------|-------------|
E|----------------|-----------------|-3-3-3-3-3-3-3-3-3-3-3-3-|-------------|

G|----------------|-----------------|-------------|-----------|-----------|-----------------|-----|
D|----9-----9---9-|-----5-----5---5-|-----5-----5-|---5-----5-|-----5---5-|-----9-----9---9-|-----|
A|7-7---7-7---7---|-3-3---3-3---3---|-------------|-----------|-----------|-7-7---7-7---7---|-----|
E|----------------|-----------------|-3-3---3-3---|-3---3-3---|-3-3---3---|-----------------|-7/0-|

G|--------|---------|
D|--------|---------|
A|2-3-2---|-2-3-2---|
E|------3-|-------3-|



[Verse 2]

G|---------|-----------|-----------|----------|-------|
D|---------|-----------|-----------|----------|-------|
A|---------|-----------|-----------|--3-3-3-3-|-3-3/5-|
E|-3-3-3-3-|--3-3-3-3--|--0-0-0-0--|----------|-------|

G|----------------|-----------------|-----------------|-----------------|
D|----------------|-----------------|-----------------|-----------------|
A|----------------|-----------------|-----------------|-----------------|
E|3-3-3-3-3-3-3-3-|-3-3-3-3-3-3-3-3-|-3-3-3-3-3-3-3-3-|-3-3-3-3-2-2-2-2-|

G|----------------|-----------------|-----------------|-----------------|
D|----------------|-----------------|-----------------|-----------------|
A|----------------|-----------------|-3-3-3-3-3-3-3-3-|-3-3-3-3-3-3-5-5-|
E|0-0-0-0-0-0-0-0-|-0-0-0-0-0-0-0-0-|-----------------|-----------------|



[Chorus 2]

G|----------------|-----------------|-----------------|-----------------|
D|----------------|-----------------|-----------------|-----------------|
A|----------------|-----------------|-----------------|-----------------|
E|3-3-3-3-3-3-3-3-|-3-3-3-3-3-3-3-3-|-3-3-3-3-3-3-3-3-|-3-3-3-3-2-2-2-2-|

G|----------------|-----------------|-------------------------|---------|
D|----------------|-----------------|-------------------------|-5-5-5-5-|
A|3-3-3-3-3-3-3-3-|-3-3-3-3-3-3-5-5-|-------------------------|---------|
E|----------------|-----------------|-3-3-3-3-3-3-3-3-3-3-3-3-|---------|

G|----------------|-----------------|-----------------|-----------------|
D|----------------|-----------------|-----------------|-----------------|
A|----------------|-----------------|-----------------|-----------------|
E|3-3-3-3-3-3-3-3-|-3-3-3-3-3-3-3-3-|-3-3-3-3-3-3-3-3-|-3-3-3-3-2-2-2-2-|

G|----------------|-----------------|-------------------------|-------------|
D|----------------|-----------------|-------------------------|-5--5--5--5--|
A|3-3-3-3-3-3-3-3-|-3-3-3-3-3-3-5-5-|-------------------------|-------------|
E|----------------|-----------------|-3-3-3-3-3-3-3-3-3-3-3-3-|-------------|

G|----------------|-----------------|-------------|-----------|-----------|-----------------|-----|
D|----9-----9---9-|-----5-----5---5-|-----5-----5-|---5-----5-|-----5---5-|-----9-----9---9-|-----|
A|7-7---7-7---7---|-3-3---3-3---3---|-------------|-----------|-----------|-7-7---7-7---7---|-----|
E|----------------|-----------------|-3-3---3-3---|-3---3-3---|-3-3---3---|-----------------|-7/0-|

G|--------|------------------|---------|------------------|
D|--------|------------------|---------|------------------|
A|2-3-2---|-2-3-2------------|-2-3-2---|-2-3-2------------|
E|------3-|-------3--3-3-3-3-|-------3-|-------3--3-3-3-3-|



[Bridge]

G|----------------|-----------------|-----------------|-----------------|
D|----------------|-----------------|-----------------|-----------------|
A|7-7-7-7-7-7-7-7-|-7-7-7-7-7-7-7-7-|-3-3-3-3-3-3-3-3-|-3-3-3-3-3-3-3-3-|
E|----------------|-----------------|-----------------|-----------------|

G|--------|------------------|---------|------------------|
D|--------|------------------|---------|------------------|
A|2-3-2---|-2-3-2------------|-2-3-2---|-2-3-2------------|
E|------3-|-------3--3-3-3-3-|-------3-|-------3--3-3-3-3-|

G|----------------|-----------------|-----------------|-----------------|
D|----------------|-----------------|-----------------|-----------------|
A|----------------|-----------------|-3-3-3-3-3-3-3-3-|-3-3-3-3-3-3-5-5-|
E|0-0-0-0-0-0-0-0-|-0-0-0-0-0-0-0-0-|-----------------|-----------------|



[Chorus 3]

G|----------------|-----------------|-----------------|-----------------|
D|----------------|-----------------|-----------------|-----------------|
A|----------------|-----------------|-----------------|-----------------|
E|3-3-3-3-3-3-3-3-|-3-3-3-3-3-3-3-3-|-3-3-3-3-3-3-3-3-|-3-3-3-3-2-2-2-2-|

G|----------------|-----------------|-------------------------|---------|
D|----------------|-----------------|-------------------------|-5-5-5-5-|
A|3-3-3-3-3-3-3-3-|-3-3-3-3-3-3-5-5-|-------------------------|---------|
E|----------------|-----------------|-3-3-3-3-3-3-3-3-3-3-3-3-|---------|

G|----------------|-----------------|-----------------|-----------------|
D|----------------|-----------------|-----------------|-----------------|
A|----------------|-----------------|-----------------|-----------------|
E|3-3-3-3-3-3-3-3-|-3-3-3-3-3-3-3-3-|-3-3-3-3-3-3-3-3-|-3-3-3-3-2-2-2-2-|

G|----------------|-----------------|-------------------------|-------------|
D|----------------|-----------------|-------------------------|-5--5--5--5--|
A|3-3-3-3-3-3-3-3-|-3-3-3-3-3-3-5-5-|-------------------------|-------------|
E|----------------|-----------------|-3-3-3-3-3-3-3-3-3-3-3-3-|-------------|

G|----------------|-----------------|-------------|-----------|-----------|-----------------|-----|
D|----9-----9---9-|-----5-----5---5-|-----5-----5-|---5-----5-|-----5---5-|-----9-----9---9-|-----|
A|7-7---7-7---7---|-3-3---3-3---3---|-------------|-----------|-----------|-7-7---7-7---7---|-----|
E|----------------|-----------------|-3-3---3-3---|-3---3-3---|-3-3---3---|-----------------|-7/0-|

G|--------|-------------------|
D|--------|-------------------|
A|2-3-2---|-2-3-2-------------|
E|------3-|-------3--3-3-3-3--|



[Verse 1: Mark Hoppus]
Can you read my thoughts
I'm not sure what I said
I feel dumb and long night coming
Did you steal my prayers
I don't know where I was
I feel numb and all or nothing

[Chorus: Mark Hoppus & Matt Skiba]
It's Friday night let's lose our minds
In a downward spiral
Here we go
Because we got no control
Friday nights always save my life
From the worst of times we ever had
Thank God for punk rock bands
Until Monday morning strikes again
We are the kings of the weekend

[Verse 2: Matt Skiba]
I can feel my head
Falling off my neck
I need something to keep going
So just take my hand
Only seconds left
The clock's running our time's coming

[Chorus: Mark Hoppus & Matt Skiba]
It's Friday night let's lose our minds
In a downward spiral
Here we go
Because we got no control
Friday nights always save my life
From the worst of times we ever had
Thank God for punk rock bands
Until Monday morning strikes again
We are the kings of the weekend

[Chorus: Mark Hoppus & Matt Skiba]
It's Friday night let's lose our minds
In a downward spiral
Here we go
Because we got no control
Friday nights always save my life
From the worst of times we ever had
Thank God for punk rock bands
Until Monday morning strikes again
We are the kings of the weekend



-----------------------------------------------------------------------------------------------------
                                       10. Teenage Satellites
-----------------------------------------------------------------------------------------------------
Tuning: Standard


[Verse 1]

G|-------------------------|-------------------------|-------------------|
D|-------------------------|-------------------------|-------------------|
A|-5-5-5-5-5-5-5-5-5-5-5-5-|-5-5-5-5-5-5-5-5-5-5-5-5-|-/7-7-7-7--9-9-9-9-|
E|-------------------------|-------------------------|-------------------|

G|-----------------|-----------------|-----------------|-------------------|
D|-----------------|-----------------|-----------------|-------------------|
A|-----------------|-----------------|-----------------|-------------------|
E|-3-3-3-3-3-3-3-3-|-3-3-3-3-3-3-3-3-|-0-0-0-0-0-0-0-0-|-0-0-0-0-0-0-0-0-0-|

G|-----------------|-----------------|-----------------|--------------------------|
D|-----------------|-----------------|-----------------|--------------------------|
A|-2-2-2-2-2-2-2-2-|-2-2-2-2-2-2-2-2-|-0-0-0-0-0-0-0-0-|-/12-12-12-12-12-12-12-12-|
E|-----------------|-----------------|-----------------|--------------------------|

G|-----------------|-----------------|------|
D|-----------------|-----------------|------|
A|-----------------|-----------------|------|
E|-3-3-3-3-3-3-3-3-|-3-3-3-3-3-3-3-3-|--0~--|



[Chorus]

G|-------|-----------|-----------|-----------|-----------|
D|-------|-----------|-----------|-----------|-----------|
A|-------|--5-5-5--4-|--5-5-5--4-|--5-5-5--4-|--5-5-5--4-|
E|--10\--|-----------|-----------|-----------|-----------|

G|-----------------|---------------------|
D|-----------------|-----7-7-------7-7---|
A|-----------------|----------0-0------0-|
E|-3-3-3-3-3-3-3-3-|--5------------------|

G|-----------|-----------|-----------|-----------|
D|-----------|-----------|-----------|-----------|
A|--5-5-5--4-|--5-5-5--4-|--5-5-5--4-|--5-5-5--4-|
E|-----------|-----------|-----------|-----------|

G|-----------------|--------------------------|
D|-----------------|--------------------------|
A|-----------------|-/12-12-12-12-12-12-12-12-|
E|-3-3-3-3-3-3-3-3-|--------------------------|

G|-------|--------|--------------------|
D|-------|--------|--------------------|
A|-2--2--|-2------|--------------------|
E|-------|---2--2-|-2-3-3-3-3-3-3-3/10-|



"Wooo ohh ohh "
G|-----------|-----------|-----------|-----------|
D|-----------|-----------|-----------|-----------|
A|--5-5-5--4-|--5-5-5--4-|--5-5-5--4-|--5-5-5--4-|
E|-----------|-----------|-----------|-----------|

G|-----------------|-------------------|
D|-----------------|-------------------|
A|-----------------|-------------------|
E|-3-3-3-3-3-3-3-3-|-5-5-5-5--7-7--9-9-|

G|-----------|-----------|-----------|-----------|
D|-----------|-----------|-----------|-----------|
A|--5-5-5--4-|--5-5-5--4-|--5-5-5--4-|--5-5-5--4-|
E|-----------|-----------|-----------|-----------|

G|-----------------|----------------------|
D|-----------------|-----7-7-------7-7----|
A|-----------------|----------0-0------0--|
E|-3-3-3-3-3-3-3-3-|--5-------------------|

G|------|-----|
D|------|--7~-|
A|--5\--|--5~-|
E|------|-----|



[Verse 2]

G|-------------------------|-------------------------|-------------------|
D|-------------------------|-------------------------|-------------------|
A|-5-5-5-5-5-5-5-5-5-5-5-5-|-5-5-5-5-5-5-5-5-5-5-5-5-|-/7-7-7-7--9-9-9-9-|
E|-------------------------|-------------------------|-------------------|

G|-----------------|-----------------|-----------------|--------------------|
D|-----------------|-----------------|-----------------|--------------------|
A|-----------------|-----------------|-----------------|--------------------|
E|-3-3-3-3-3-3-3-3-|-3-3-3-3-3-3-3-3-|-0-0-0-0-0-0-0-0-|-0-0-0-0-0-0--9-9-7-|

G|-----------------|-----------------|-----------------|-----------------|
D|-----------------|-----------------|-----------------|-----------------|
A|-2-2-2-2-2-2-2-2-|-2-2-2-2-2-2-2-2-|-0-0-0-0-0-0-0-0-|-0-0-0-0-0-0-0-0-|
E|-----------------|-----------------|-----------------|-----------------|

G|-----------------|-----------------|-------------|-----------------|
D|-----------------|-----------------|-------------|-----------------|
A|-----------------|-----------------|-------------|-7-7-7-7-7-7-7-7-|
E|-3-3-3-3-3-3-3-3-|-3-3-3-3-3-3-3-3-|--0--0--0--0-|-----------------|



[Chorus 2]

G|-----------|-----------|-----------|-----------|
D|-----------|-----------|-----------|-----------|
A|--5-5-5--4-|--5-5-5--4-|--5-5-5--4-|--5-5-5--4-|
E|-----------|-----------|-----------|-----------|

G|-----------------|----------------------|
D|-----------------|-----7-7-------7-7----|
A|-----------------|----------0-0------0--|
E|-3-3-3-3-3-3-3-3-|--5-------------------|

G|-----------|-----------|-----------|-----------|
D|-----------|-----------|-----------|-----------|
A|--5-5-5--4-|--5-5-5--4-|--5-5-5--4-|--5-5-5--4-|
E|-----------|-----------|-----------|-----------|

G|-----------------|----------------------|
D|-----------------|-----7-7-------7-7----|
A|-----------------|----------0-0------0--|
E|-3-3-3-3-3-3-3-3-|--5-------------------|

G|-------|--------|--------------------|
D|-------|--------|--------------------|
A|-2--2--|-2------|--------------------|
E|-------|---2--2-|-2-3-3-3-3-3-3-3/10-|



[Bridge]

G|-------------------|----------------|---------------|------------------|
D|-------------------|----------------|---------------|------------------|
A|-x-2-2-2-2-2-2-2-2-|-2-2-2/4-4--5-5-|---------------|--------7-7--5-5--|
E|-------------------|----------------|-3-3-3-3-3-3-3-|-5-5-5------------|

G|-------------------|----------------|---------------|----------|---------|
D|-------------------|----------------|---------------|-----7----|-----7---|
A|-x-2-2-2-2-2-2-2-2-|-2-2-2/4-4--5-5-|---------------|-7-7---7--|-7-7---7-|
E|-------------------|----------------|-3-3-3-3-3-3-3-|----------|---------|



[Chorus 3]

G|-----------|-----------|-----------|-----------|
D|-----------|-----------|-----------|-----------|
A|--5-5-5--4-|--5-5-5--4-|--5-5-5--4-|--5-5-5--4-|
E|-----------|-----------|-----------|-----------|

G|-----------------|----------------------|
D|-----------------|-----7-7-------7-7----|
A|-----------------|----------0-0------0--|
E|-3-3-3-3-3-3-3-3-|--5-------------------|

G|-----------|-----------|-----------|-----------|
D|-----------|-----------|-----------|-----------|
A|--5-5-5--4-|--5-5-5--4-|--5-5-5--4-|--5-5-5--4-|
E|-----------|-----------|-----------|-----------|

G|-----------------|--------------------------|
D|-----------------|--------------------------|
A|-----------------|-/12-12-12-12-12-12-12-12-|
E|-3-3-3-3-3-3-3-3-|--------------------------|

G|------------------|-----------------|--------------------|
D|------------4-4-4-|-----------4-4-4-|-----------5-5--10\-|
A|-2-2-2-2-2--------|-----------------|--------------------|
E|------------------|-2-2-2-2-2-------|-3-3-3-3-3----------|



[Outro]
"Wooo Oh oh..."
G|-----------|-----------|-----------|-----------|
D|-----------|-----------|-----------|-----------|
A|--5-5-5--4-|--5-5-5--4-|--5-5-5--4-|--5-5-5--4-|
E|-----------|-----------|-----------|-----------|

G|-----------------|-------------------|
D|-----------------|-------------------|
A|-----------------|-------------------|
E|-3-3-3-3-3-3-3-3-|-5-5-5-5--7-7--9-9-|

G|-----------|-----------|-----------|-----------|
D|-----------|-----------|-----------|-----------|
A|--5-5-5--4-|--5-5-5--4-|--5-5-5--4-|--5-5-5--4-|
E|-----------|-----------|-----------|-----------|

G|-----------------|-------|
D|-----------------|-------|
A|-----------------|-------|
E|-3-3-3-3-3-3-3-3-|--10\--|

G|-----------|-----------|-----------|-----------|
D|-----------|-----------|-----------|-----------|
A|--5-5-5--4-|--5-5-5--4-|--5-5-5--4-|--5-5-5--4-|
E|-----------|-----------|-----------|-----------|

G|-------------------------|-------------------------|
D|-------------------------|-------------------------|
A|-10-10-10-10-10-10-10-10-|-12-12-12-12--10-10--9-9-|
E|-------------------------|-------------------------|

G|-----------|-----------|-----------|-----------|
D|-----------|-----------|-----------|-----------|
A|--5-5-5--4-|--5-5-5--4-|--5-5-5--4-|--5-5-5--4-|
E|-----------|-----------|-----------|-----------|

G|-----------------|------------------|-----|
D|-----------------|------------------|-----|
A|-----------------|------------------|-----|
E|-3-3-3-3-3-3-3-3-|-5-5-5-5-5-5-5-5--|--3~-|



[Verse 1: Mark Hoppus]
I can almost see your house from here
But the signal seems to disappear
So what's the problem Houston's calling
Then you hit me like a Friday night
Like a handgun in a firefight
Dive in slow motion towards the ocean

[Chorus: Matt Skiba]
Let's run away
Let's go and waste another year
Let's spin apart while racing through the atmosphere
We tumble through the night
We burn so bright
We're teenage satellites

[Verse 2: Matt Skiba]
I'm kind of nervous of the consequence
As we climb over the neighbor's fence
The longest summer's nights are numbered
Then you kissed me like a storm at sea
Like I'm the only one you'll ever need
We're left abandoned in the deep end

[Chorus: Matt Skiba]
Let's run away
Let's go and waste another year
Let's spin apart while racing through the atmosphere
We tumble through the night
We burn so bright
We're teenage satellites
(We're teenage satellites)

[Bridge: Mark Hoppus]
We are a slow descent
Forgotten astronauts
We are an avalanche
We're just an afterthought

[Chorus: Matt Skiba]
Let's run away
Let's go and waste another year
Let's spin apart while racing through the atmosphere
We tumble through the night
We burn so bright
We're teenage satellites
We're teenage satellites
Teenage satellites
Teenage satellites



-----------------------------------------------------------------------------------------------------
                                           11. Left Alone
-----------------------------------------------------------------------------------------------------
Tuning: Standard


[Intro]

G|--7-6-7-9/11-9-|-6-6-6-6-6-6-6-4-2--|
D|---------------|--------------------|
A|---------------|--------------------|
E|---------------|--------------------|
            
G|--7-6-7-9/11-9-|--------------------|
D|---------------|-6-6-6-6-6-6-6-8-10-|
A|---------------|--------------------|
E|---------------|--------------------|



[Verse]

G|--7-6-7-9/11-9-|-6-6-6-6-6-6-6-4-2--|
D|---------------|--------------------|
A|---------------|--------------------|
E|---------------|--------------------|
            
G|--7-6-7-9/11-9-|--------------------|
D|---------------|-6-6-6-6-6-6-6-8-10-|
A|---------------|--------------------|
E|---------------|--------------------|

G|--7-6-7-9/11-9-|-6-6-6-6-6-6-6-4-2--|
D|---------------|--------------------|
A|---------------|--------------------|
E|---------------|--------------------|



[Pre-Chorus]

G|--7-7-7-7-7-7-7-7-7-7-7-7-9-11----|
D|----------------------------------|
A|----------------------------------|
E|----------------------------------|

G|-----------------|
D|-----------------|
A|--9-9-9-9-9-9-7--|
E|-----------------|


[Chorus]

D|------------------|-----------------|
G|------------------|-----------------|
A|------------------|-7-7-7-7-7-7-7-7-|
E|--5-5-5-5-5-5-5-5-|-----------------|

G|------------------|-----------------|
D|------------------|-----------------|
A|--9-9-9-9-9-9-9-9-|-5-5-5-5-5-5-5-5-|
E|------------------|-----------------|



[Bridge]

G|--7-6-7-9/11-9-|-6-6-6-6-6-6-6-4-2--|
D|---------------|--------------------|
A|---------------|--------------------|
E|---------------|--------------------|
            
G|--7-6-7-9/11-9-|--------------------|
D|---------------|-6-6-6-6-6-6-6-8-10-|
A|---------------|--------------------|
E|---------------|--------------------|



[Verse 1: Mark Hoppus & Matt Skiba]
Eyes are open, words are spoken
Here's to the sunrise
Head is loaded, cards are folded
Under the moonlight

[Pre-Chorus: Mark Hoppus & Matt Skiba]
Can you remember, you remember the last time
We woke up sober?
Can you remember, you remember the last night
You ran me over?
Are we halfway gone or halfway there?

[Chorus: Matt Skiba & Mark Hoppus]
Left alone we're only halfway home
Sink like stones, fall into the unknown
Break me down, I'm not afraid of you
Pull me under
Slowly drown, I never wanted to
Left alone to wonder

[Verse 2: Matt Skiba & Mark Hoppus]
Mind is open, thoughts are woken
There goes the sunrise
Heart is broken, love unspoken
Here comes the moonlight

[Pre-Chorus: Matt Skiba & Mark Hoppus]
Can you remember, you remember the last time
I left hungover?
Can you remember, you remember the last night
That I stayed over?
Are we halfway gone or halfway there?

[Chorus: Matt Skiba & Mark Hoppus]
Left alone we're only halfway home
Sink like stones, fall into the unknown
Break me down, I'm not afraid of you
Pull me under
Slowly drown, I never wanted to
Left alone to wonder

[Post-Chorus: Mark Hoppus]
We're left alone, we're left alone
We're left alone, we're left alone

[Chorus: Matt Skiba & Mark Hoppus]
Left alone we're only halfway home
Sink like stones, fall into the unknown
Break me down, I'm not afraid of you
Pull me under
Slowly drown, I never wanted to
Left alone to wonder

[Post-Chorus: Mark Hoppus]
We're left alone, we're left alone
We're left alone, we're left alone



-----------------------------------------------------------------------------------------------------
                                           12. Rabbit Hole
-----------------------------------------------------------------------------------------------------
Tuning: Standard


[Verse 1]

G|-9-9-9-9-7-7-7-7-|-9-9-9-9-7-7-7-7-|-----------------|-----------------|
D|-----------------|-----------------|-9-9-9-9-7-7-7-7-|-9-9-9-9-7-7-7-7-|
A|-----------------|-----------------|-----------------|-----------------| (x2)
E|-----------------|-----------------|-----------------|-----------------|



[Pre-Chorus 1]

G|-----------------------|-----------------------|-----------------------|-------------------------|
D|-----------------------|-----------------------|-----------------------|-------------------------|
A|-5-5-5--7--3-3-3-3-3-3-|-5-5-5--7--3-3-3-3-3-3-|-5-5-5--7--3-3-3-3-3-3-|-5-5-5-5-5-5-5-5-5-5-5-5-|  
E|-----------------------|-----------------------|-----------------------|-------------------------|



[Chorus 1]

G|-------------|-------------|-------------|-------------|
D|-------------|-------------|-------------|-------------|
A|-------------|-5-5-5-5-5-5-|-3-3-3-3-3-3-|-3-3-3-3-3-3-|  
E|-3-3-3-3-3-3-|-------------|-------------|-------------|

G|-------------|-------------|-------------|-------------|
D|-------------|-------------|-------------|-------------|
A|-------------|-5-5-5-5-5-5-|-3-3-3-3-3-3-|-3-3-3-3-3-3-|  
E|-3-3-3-3-3-3-|-------------|-------------|-------------|

G|-------------|-------------|-------------|------------|
D|-------------|-------------|-------------|-------7-5--|
A|-------------|-5-5-5-5-5-5-|-3-3-3-3-3-3-|-3-5-7------|  
E|-3-3-3-3-3-3-|-------------|-------------|------------|

G|-------------|-------------|-------------|-------------|
D|-5-5-5-5-5-5-|-------------|-------------|-------------|
A|-------------|-5-5-5-5-5-5-|-3-3-3-3-3-3-|-3-3-3-3-3-3-|  
E|-------------|-------------|-------------|-------------|



[Post-Chorus 1]

G|-9-9-9-9-7-7-7-7-|-9-9-9-9-7-7-7-7-|-----------------|-----------------|
D|-----------------|-----------------|-9-9-9-9-7-7-7-7-|-9-9-9-9-7-7-7-7-|
A|-----------------|-----------------|-----------------|-----------------| (x2)
E|-----------------|-----------------|-----------------|-----------------|



[Verse 2]

G|-9-9-9-9-7-7-7-7-|-9-9-9-9-7-7-7-7-|-----------------|-----------------|
D|-----------------|-----------------|-9-9-9-9-7-7-7-7-|-9-9-9-9-7-7-7-7-|
A|-----------------|-----------------|-----------------|-----------------| (x2)
E|-----------------|-----------------|-----------------|-----------------|



[Pre-Chorus 2]

G|-----------------------|-----------------------|-----------------------|-------------------------|
D|-----------------------|-----------------------|-----------------------|-------------------------|
A|-5-5-5--7--3-3-3-3-3-3-|-5-5-5--7--3-3-3-3-3-3-|-5-5-5--7--3-3-3-3-3-3-|-5-5-5-5-5-5-5-5-5-5-5-5-|  
E|-----------------------|-----------------------|-----------------------|-------------------------|



[Chorus 2]

G|-------------|-------------|-------------|-------------|
D|-------------|-------------|-------------|-------------|
A|-------------|-5-5-5-5-5-5-|-3-3-3-3-3-3-|-3-3-3-3-3-3-|  
E|-3-3-3-3-3-3-|-------------|-------------|-------------|

G|-------------|-------------|-------------|-------------|
D|-------------|-------------|-------------|-------------|
A|-------------|-5-5-5-5-5-5-|-3-3-3-3-3-3-|-3-3-3-3-3-3-|  
E|-3-3-3-3-3-3-|-------------|-------------|-------------|

G|-------------|-------------|-------------|------------|
D|-------------|-------------|-------------|-------7-5--|
A|-------------|-5-5-5-5-5-5-|-3-3-3-3-3-3-|-3-5-7------|  
E|-3-3-3-3-3-3-|-------------|-------------|------------|

G|-------------|-------------|-------------|-------------|
D|-5-5-5-5-5-5-|-------------|-------------|-------------|
A|-------------|-5-5-5-5-5-5-|-3-3-3-3-3-3-|-3-3-3-3-3-3-|  
E|-------------|-------------|-------------|-------------|



[Bridge]

G|-------------|-------------|-------------|-------------|
D|-------------|-------------|-------------|-------------|
A|-7-7-7-7-7-7-|-7-7-7-7-7-7-|-3-3-3-3-3-3-|-3-3-3-3-3-3-|  
E|-------------|-------------|-------------|-------------|

G|-------------|-------------|-------------|-------------|
D|-------------|-------------|-------------|-------------|
A|-7-7-7-7-7-7-|-7-7-7-7-7-7-|-3-3-3-3-3-3-|-5-5-5-5-5-5-|  
E|-------------|-------------|-------------|-------------|

G|-------------|-------------|-------------|-------------|
D|-------------|-------------|-------------|-------------|
A|-7-7-7-7-7-7-|-7-7-7-7-7-7-|-3-3-3-3-3-3-|-3-3-3-3-3-3-|  
E|-------------|-------------|-------------|-------------|

G|-------------|-------------|-------------|-------------|
D|-------------|-------------|-------------|-------------|
A|-7-7-7-7-7-7-|-7-7-7-7-7-7-|-3-3-3-3-3-3-|-5-5-5-5-5-5-|  
E|-------------|-------------|-------------|-------------|



[Chorus 3]

G|-------------|-------------|-------------|-----------------|
D|-------------|-------------|-------------|-----------------|
A|-------------|-5-5-5-5-5-5-|-3-3-3-3-3-3-|-3-3-3/-15-15-15-|  
E|-3-3-3-3-3-3-|-------------|-------------|-----------------|

G|-------------|-------------|-------------|-------------|
D|-------------|-------------|-------------|-------------|
A|-------------|-5-5-5-5-5-5-|-3-3-3-3-3-3-|-3-3-3-3-3-3-|  
E|-3-3-3-3-3-3-|-------------|-------------|-------------|

G|-------------|-------------|-------------|------------|
D|-------------|-------------|-------------|-------7-5--|
A|-------------|-5-5-5-5-5-5-|-3-3-3-3-3-3-|-3-5-7------|  
E|-3-3-3-3-3-3-|-------------|-------------|------------|

G|-------------|-------------|-------------|-------------|
D|-5-5-5-5-5-5-|-------------|-------------|-------------|
A|-------------|-5-5-5-5-5-5-|-3-3-3-3-3-3-|-3-3-3-3-3-3-|  
E|-------------|-------------|-------------|-------------|



[Outro]

G|-9-9-9-9-7-7-7-7-|-9-9-9-9-7-7-7-7-|-----------------|-----------------|
D|-----------------|-----------------|-9-9-9-9-7-7-7-7-|-9-9-9-9-7-7-7-7-|
A|-----------------|-----------------|-----------------|-----------------| (x3)
E|-----------------|-----------------|-----------------|-----------------|

G|-9-9-9-9-7-7-7-7-|-9-9-9-9-7-7-7-7-|-----------------|-----------------|
D|-----------------|-----------------|-9r---7r---5r----|-----------------|
A|-----------------|-----------------|-----------------|-----------------|  
E|-----------------|-----------------|-----------------|-----------------|



[Verse 1: Mark Hoppus]
Dear head, shut up
I can't listen no more
It's late, so shut up
Is one night too much to ask for?

[Pre-Chorus: Mark Hoppus]
You are a haunted house
You're superstitious
You are the coldest stone carved marble faces

[Chorus: Mark Hoppus]
I won't fall down that fucking rabbit hole
I'm barely standing on the ground
All the hints that you leave are too hard to believe at all
I won't fall down that fucking rabbit hole

[Bridge: Mark Hoppus]
With you, with you, with you, with you again
With you, with you, with you, with you again

[Verse 2: Matt Skiba]
This bed, on fire
I can't sleep here no more
Too late and tired
Dreaming down on the floor

[Pre-Chorus 2: Matt Skiba]
I am a haunted house
I'm superstitious
I am a cardboard cutout, old and faded

[Chorus: Mark Hoppus]
I won't fall down that fucking rabbit hole
I'm barely standing on the ground
All the hints that you leave are too hard to believe at all
I won't fall down that fucking rabbit hole

[Bridge: Mark Hoppus]
With you, with you, with you, with you again
With you, with you, with you, with you again
With you, with you, with you, with you again
With you, with you, with you, with you again

[Outro: Mark Hoppus and Matt Skiba]
I won't fall down that fucking rabbit hole
I won't fall down, I won't fall down
I'm barely standing on the ground
Barely standing on the ground
All the hints that you leave are too hard to believe at all
I won't fall down that fucking rabbit hole
I won't fall down that fucking rabbit hole



-----------------------------------------------------------------------------------------------------
                                            13. San Diego
-----------------------------------------------------------------------------------------------------
Tuning: Standard


[Verse 1]

G|-----------|--------|-----------|--------|---------|
D|-----------|--------|-----------|--------|---------|
A|-----7-----|--------|-----3-----|--------|---------| (x4)
E|--5-----5--|--3--3--|--1-----1--|--1--1--|--1---3--|



[Pre-Chorus 1]

G|-------------------------|----------------------------|
D|-------------------------|----------------------------|
A|-------------------------|----------------------------|
E|--0--0--0--0--0--0--0--0-|-1--1--1--1--1--1--1--1--3--|


[Chorus 1]

G|------------------------|------------------------|------------------------|------------------------|
D|------------------------|------------------------|------------------------|------------------------|
A|------------------------|------------------------|-3--3--3--3--3--3--3--3-|------------------------| (x2)
E|-0--0--0--0--0--0--0--0-|-1--1--1--1--1--1--1--1-|------------------------|-3--3--3--3--3--3--3--3-|

G|---------|---------|---------|---------------------------------|
D|---------|---------|---------|---------------------------------|
A|--0---0--|---------|--3---3--|--3--3--3--3---------------------| (x2)
E|---------|--1---1--|---------|--------------3---3---3--3--3--3-|



[Verse 2]

G|----------------------|-------------------------|-------------------------|--------------------------|
D|----------------------|-------------------------|-------------------------|--------------------------|
A|----------------------|----7--------------------|-------------------------|--------------------------|
E|--3---3---3--3--3--3--|--5---5---5--5--5--5--5--|--3--3--3--3--3--3--3--3-|--1--1--1--1--1--1--1--1--|

G|----------------------|-------------------------|-------------------------|--------------------------|
D|----------------------|-------------------------|-------------------------|--------------------------|
A|----------------------|----7--------------------|-------------------------|--------------------------|
E|--3---3---3--3--3--3--|--5---5---5--5--5--5--5--|--3--3--3--3--3--3--3--3-|--1--1--1--1--1--1--1--1--|

G|----------------------|-------------------------|-------------------------|--------------------------|
D|----------------------|-------------------------|-------------------------|--------------------------|
A|----------------------|----7--------------------|-------------------------|--------------------------|
E|--3---3---3--3--3--3--|--5---5---5--5--5--5--5--|--3--3--3--3--3--3--3--3-|--1--1--1--1--1--1--1--1--|

G|----------------------|-------------------------|--------------------------|--------------------------|
D|----------------------|-------------------------|--------------------------|--------------------------|
A|----------------------|----7--------------------|--------------------------|--8--8--8--8--8--8--8--8--|
E|--3---3---3--3--3--3--|--5---5---5--5--5--5--5--|--3--3--3--3--3--3--3--3--|--------------------------|



[Pre-Chorus 2]

G|---------------------------|--------------------------|
D|---------------------------|--------------------------|
A|--8--8--8--7--8--10--8--7--|--------------------------|
E|---------------------------|--0--0--0--0--0--0--0--0--|

G|--------------------------|--------------------------|
D|--------------------------|--------------------------|
A|--------------------------|--------------------------|
E|--1--1--1--1--1--1--1--1--|--3--3--3--3--3--3--3--3--|



[Chorus 2]

G|------------------------|------------------------|------------------------|------------------------|
D|------------------------|------------------------|------------------------|------------------------|
A|------------------------|-0--0--0--0--0--0--0--0-|------------------------|-3--3--3--3--3--3--3--3-|
E|-3--3--3--3--3--3--3--3-|------------------------|-1--1--1--1--1--1--1--1-|------------------------|

G|------------------------|------------------------|------------------------|------------------------|
D|------------------------|------------------------|------------------------|------------------------|
A|------------------------|-0--0--0--0--0--0--0--0-|------------------------|-3--3--3--3--3--3--3--3-|
E|-3--3--3--3--3--3--3--3-|------------------------|-1--1--1--1--1--1--1--1-|------------------------|

G|--------------------------|---------|---------|----------------------|----------------------|
D|--------------------------|---------|---------|----------------------|----------------------|
A|--------------------------|--0---0--|---------|--3---3---3--3--3--3--|----------------------|
E|--3--3--3--3--3--3--3--3--|---------|--1---1--|----------------------|--3---3---3--3--3--3--|

G|---------|---------|----------------------|---------------------|
D|---------|---------|----------------------|---------------------|
A|--0---0--|---------|--3---3---3--3--3--3--|---------------------|
E|---------|--1---1--|----------------------|--3---3---3--3--3--3-|



[Bridge]

G|----------12--|------12------12--|----------12--|----------12--|
D|--10--10------|--10------10------|--10--10------|--10--10------|
A|--------------|------------------|--------------|--------------|
E|--------------|------------------|--------------|--------------|

G|----------12--|------12------12--|----------12--|----------12--|
D|--------------|------------------|--------------|--------------|
A|--12--12------|--12------12------|--12--12------|--12--12------|
E|--------------|------------------|--------------|--------------|

G|----------12--|------12------12--|----------12--|----------12--|
D|--10--10------|--10------10------|--10--10------|--10--10------|
A|--------------|------------------|--------------|--------------|
E|--------------|------------------|--------------|--------------|

G|------------|------------------|--------------|----------------------|
D|--------10--|-------10-----10--|----------12--|----------12------12--|
A|--8--8------|-8--8------8------|--10--10------|--10--10------10------|
E|------------|------------------|--------------|----------------------|

G|----------12--|------12------12--|----------12--|----------12--|
D|--10--10------|--10------10------|--10--10------|--10--10------|
A|--------------|------------------|--------------|--------------|
E|--------------|------------------|--------------|--------------|

G|----------12--|------12------12--|----------12--|----------12--|
D|--------------|------------------|--------------|--------------|
A|--12--12------|--12------12------|--12--12------|--12--12------|
E|--------------|------------------|--------------|--------------|

G|--------------------------|--------------------------|
D|--------------------------|--------------------------|
A|--------------------------|--------------------------|
E|--1--1--1--1--1--1--1--1--|--3--3--3--3--3--3--3--3--|



[Pre-Chorus 3]

G|------------------------|------------------------|------------------------|------------------------|
D|------------------------|------------------------|------------------------|------------------------|
A|------------------------|------------------------|-3--3--3--3--3--3--3--3-|------------------------| (x2)
E|-0--0--0--0--0--0--0--0-|-1--1--1--1--1--1--1--1-|------------------------|-3--3--3--3--3--3--3--3-|



[Chorus 3]

G|------------------------|------------------------|------------------------|------------------------|
D|------------------------|------------------------|------------------------|------------------------|
A|------------------------|------------------------|-3--3--3--3--3--3--3--3-|------------------------| (x2)
E|-0--0--0--0--0--0--0--0-|-1--1--1--1--1--1--1--1-|------------------------|-3--3--3--3--3--3--3--3-|

G|---------------------------------------------------------------------------|
D|---------------------------------------------------------------------------|
A|----0-----0-----------------3-----3-----3--3--3--3-------------------------|
E|----------------1-----1-------------------------------3----3----3--3--3--3-|

G|---------|---------|---------|---------------------------------|
D|---------|---------|---------|---------------------------------|
A|--0---0--|---------|--3---3--|--3--3--3--3---------------------|
E|---------|--1---1--|---------|--------------3---3---3--3--3--3-|

G|-----------|--------|-----------|--------|---------|
D|-----------|--------|-----------|--------|---------|
A|-----7-----|--------|-----3-----|--------|---------| 
E|--5-----5--|--3--3--|--1-----1--|--1--1--|--1---3--|

G|-----------|--------|-----------|--------|
D|-----------|--------|-----------|--------|
A|-----7-----|--------|-----3-----|--------|
E|--5-----5--|--3--3--|--1-----1--|--1--1--|



[Verse 1: Mark Hoppus]
Sometimes I wonder where our lives go
And question who we used to be
Sometimes I feel like I'm the oxygen between
The cigarette and gasoline

[Chorus: Matt Skiba & Mark Hoppus]
I can't sleep cause what if I dream
Of going back to San Diego
We bought a one way ticket
So we could go see the Cure
And listen to our favorite songs in the parking lot
And think of every person I ever lost in San Diego
To San Diego
Can't go back to San Diego
Can't go back to San Diego

[Verse 2: Mark Hoppus]
Abandoned Houses with the lights on
Late at night I call your name
Abandoned love songs smashed across the hardwood floors
I read the sadness on your face

[Chorus: Matt Skiba & Mark Hoppus]
I can't sleep cause what if I dream
Of going back to San Diego
We bought a one way ticket
So we could go see the Cure
And listen to our favorite songs in the parking lot
And think of every person I ever lost in San Diego
To San Diego
Can't go back to San Diego
Can't go back to San Diego

[Bridge: Matt Skiba]
I never needed to hear
All of the pain and the fear
Your secrets filled up my ears
Like the ocean blue
I never wanted to know
How deep these cuts on you go
And like a river they flow to the ocean blue

[Chorus: Matt Skiba & Mark Hoppus]
Going back to San Diego
We bought a one way ticket
So we could go see the Cure
And listen to our favorite songs in the parking lot
And think of every person I ever lost in San Diego
San Diego
To San Diego
Can't go back to San Diego
San Diego
Can't go back to San Diego



-----------------------------------------------------------------------------------------------------
                                     14. The Only thing that Matters
-----------------------------------------------------------------------------------------------------
Tuning: Standard


[Intro]

G|------------------------|---------------------|
D|------------------------|---------------------|
A|-0-0-0-0-0--5-5-5-5-5-5-|-2-2-2-2-2-5-5-5-5-5-|
E|------------------------|---------------------|

G|------------------------|------------|
D|------------------------|------------|
A|-0-0-0-0-0--5-5-5-5-5-5-|-2-2--5-5-5-|
E|------------------------|------------|



[Verse]

G|---------------------------------------------------------------------------|
D|---------------------------------------------------------------------------| 
A|-0-0-0-0-0-5-5-5-5-5-5-2-2-2-2-2-5-5-5-5-5---------------------------------| (x6)
E|---------------------------------------------------------------------------|



[Chorus]

G|-----------|-------------|---------------------|
D|-----------|-------------|---------------------|
A|-2-2-2-2-2-|-5-5-5-5-5-5-|-0-0-0-0-0-0-0-0-0-0-| (x4)
E|-----------|-------------|---------------------|

G|-9-9--6-6-6-6-|-7-7--6-6-6-6-|-9-9--6-6-6-6-|-7-7--6-6-6-6-|-6-6--7-7-7-7-|
D|-7-7--7-7-7-7-|-7-7--7-7-7-7-|-7-7--7-7-7-7-|-7-7--7-7-7-7-|-6-6--7-7-7-7-|
A|--------------|--------------|--------------|--------------|--------------|
E|--------------|--------------|--------------|--------------|--------------|



[Verse 2]

G|-----------------------|-----------------------|
D|-----------------------|-----------------------|
A|-0-0-0-0-0-0-0-0-0-0-0-|-4-4-4-4-4-5-5-5-5-5-5-| (x4)
E|-----------------------|-----------------------|



[Chorus]

G|-----------|-------------|---------------------|
D|-----------|-------------|---------------------|
A|-2-2-2-2-2-|-5-5-5-5-5-5-|-0-0-0-0-0-0-0-0-0-0-| (x4)
E|-----------|-------------|---------------------|

G|-9-9--6-6-6-6-|-7-7--6-6-6-6-|-9-9--6-6-6-6-|-7-7--6-6-6-6-|-6-6--7-7-7-7-|
D|-7-7--7-7-7-7-|-7-7--7-7-7-7-|-7-7--7-7-7-7-|-7-7--7-7-7-7-|-6-6--7-7-7-7-|
A|--------------|--------------|--------------|--------------|--------------|
E|--------------|--------------|--------------|--------------|--------------|

G|-----------|-------------|---------------------|
D|-----------|-------------|---------------------|
A|-2-2-2-2-2-|-5-5-5-5-5-5-|-0-0-0-0-0-0-0-0-0-0-| (x4)
E|-----------|-------------|---------------------|

G|-9-9--6-6-6-6-|-7-7--6-6-6-6-|-9-9--6-6-6-6-|-7-7--6-6-6-6-|-6-6--7-7-7-7-|
D|-7-7--7-7-7-7-|-7-7--7-7-7-7-|-7-7--7-7-7-7-|-7-7--7-7-7-7-|-6-6--7-7-7-7-|
A|--------------|--------------|--------------|--------------|--------------|
E|--------------|--------------|--------------|--------------|--------------|



[Outro]

G|-6-6-6--7-|-6-6-6--7-|-6-6-6--7-|-6-6-6--7-|-6~-|
D|-7-7-7--7-|-7-7-7--7-|-7-7-7--7-|-7-7-7--7-|-7~-|
A|----------|----------|----------|----------|-0~-|
E|----------|----------|----------|----------|----|



[Verse 1: Mark Hoppus & Matt Skiba]
Where the hell did you come from
Outer space or heaven above
Short of breath my long-lost love
I can't believe my eyes
Are you for real?
My life before was such a mess
There's no use dwelling on the past
My broken heart was in a cast
Then you showed up and it began to heal

[Chorus: Mark Hoppus]
Cause you're the only thing that matters
Cause you're the only thing that's real
Cause you're the only thing I'll never let go
Cause you're the only thing I feel

[Verse 2: Matt Skiba]
Someday you'll come back to me
And I'll say something bitterly
And you'll go racing toward the kitchen
Grab a knife erase my vision
Take my flatscreen television
And my paintings by Marilyn Manson

[Chorus: Mark Hoppus]
Cause you're the only thing that matters
Cause you're the only thing that's real
Cause you're the only thing I'll never let go
Cause you're the only thing I feel

[Chorus: Mark Hoppus]
Cause you're the only thing that matters
Cause you're the only thing that's real
Cause you're the only thing I'll never let go
Cause you're the only thing I feel



-----------------------------------------------------------------------------------------------------
                                           15. California
-----------------------------------------------------------------------------------------------------
Tuning: Standard


[Chorus]

(00:59)    "Living in the perfect..."
G|--------|--------|--------|-----------|
D|--------|--------|--------|-----------|
A|--2-----|--5-----|--2-----|--5--------|
E|-----3--|-----5--|-----3--|-----5--3--|



[Verse]

G|-------------------------------------|
D|-------------------------------------|
A|--5---5---5---5---5---5--------------|
E|-------------------------3---0---0-5-|


[Chorus 1]

G|--------|--------|--------|--------|--------|--------|--------|-----------|
D|--------|--------|--------|--------|--------|--------|--------|-----------|
A|--2-----|--5-----|--2-----|--5-----|--2-----|--5-----|--2-----|--5--------|
E|-----3--|-----5--|-----3--|-----5--|-----3--|-----5--|-----3--|-----5--3--|



[Bridge]

G|-------------------|--------------------|-------------------|--------------------|
D|-------------------|--------------------|-------------------|--------------------|
A|--2-2-2-2----------|--5-5-5-5-----------|--2-2-2-2----------|--5-5-5-5-----------|
E|-----------3-3-3-3-|-----------5-5-5-5--|-----------3-3-3-3-|-----------5-5-5-5--|

G|-------------------|--------------------|----------------------|---------------------|
D|-------------------|--------------------|----------------------|---------------------|
A|--2-2-2-2----------|--5-5-5-5-----------|--2-2-2-2/10-10-10-10-|-5-5-5-5/12-12-12-12-|
E|-----------3-3-3-3-|-----------5-5-5-5--|----------------------|---------------------|



[Chorus 2]

G|-------------------|--------------------|-------------------|--------------------|
D|-------------------|--------------------|-------------------|--------------------|
A|--2-2-2-2----------|--5-5-5-5-----------|--2-2-2-2----------|--5-5-5-5-----------|
E|-----------3-3-3-3-|-----------5-5-5-5--|-----------3-3-3-3-|-----------5-5-5-5--|

G|-------------------|--------------------|-------------------|----------------------|
D|-------------------|--------------------|-------------------|----------------------|
A|--2-2-2-2----------|--5-5-5-5-----------|--2-2-2-2----------|--5-5-5-5/12-12-12-12-|
E|-----------3-3-3-3-|-----------5-5-5-5--|-----------3-3-3-3-|----------------------|



[Outro]

G|----------------|----------------|----------------|----------------|
D|----------------|----------------|----------------|----------------|
A|----------------|----------------|----------------|----------------|
E|3-3-3-3-3-3-3-3-|3-3-3-3-3-3-3-3-|3-3-3-3-3-3-3-3-|3-3-3-3-3-3-3-3-|

[End Note]

G|----|
D|----|
A|----|
E|3~--|





[Verse 1: Mark Hoppus]
Beige little boxes in a row
Neighbors and friends that you don’t know
Here’s a form, go wait in line
Can’t you see I’m doing fine
It’s what I’ve always wanted

[Verse 2: Mark Hoppus]
Two little kids out on the lawn
Once we had love, now it’s gone
Good things haven’t happened yet
I’m empty as a movie set
It’s what I’ve always wanted

[Chorus: Mark Hoppus & Matt Skiba]
Hey here’s to you California
Beautiful haze of suburbia
Living in the perfect weather
Spending time inside together
Hey here’s to you California

[Verse 3: Mark Hoppus]
Wearing all black out on the beach
Faces I’ve seen in magazines
Let’s take a walk out on the pier
Watch the shoreline disappear
It’s what I’ve always wanted

[Chorus: Mark Hoppus & Matt Skiba]
Hey here’s to you California
Beautiful haze of suburbia
Living in the perfect weather
Spending time inside together
Hey here’s to you California

[Bridge: Mark Hoppus & Matt Skiba]
Na, na na, na na, na na, na na (woah ohh)
Na, na na, na na, na na, na na (woah ohh)
Na, na na, na na, na na, na na (woah ohh)
Na, na na, na na, na na, na na (woah ohh)

[Chorus: Mark Hoppus & Matt Skiba]
Hey here’s to you California
Beautiful haze of suburbia
Living in the perfect weather
Spending time inside together
Hey here’s to you California



-----------------------------------------------------------------------------------------------------
                                        16. Brohemian Rhapsody
-----------------------------------------------------------------------------------------------------
Tuning: Standard


[Intro]

G|--5-5-5-5-5-5-5-5-5-5-5-5-5-|------------------|-------------------|-----------|
D|----------------------------|------------------|-------------------|-----------|
A|----------------------------|-0----------------|-0-0-0-0-0-0-0-0-0-|-----------|
E|----------------------------|---3--1------1--3-|-------------------|-3-3-3-3-3-|


G|--------------------|-----------------|-------------------------|---------------|
D|--------------------|-----------------|-------------------------|---------------|
A|--3-3-3-3-3-3-3-3-3-|-3-3-3-3-3-3-3-3-|-10-10-10-10-10-10-10-10-|-10-10-10h12-10|
E|--------------------|-----------------|-------------------------|---------------|

G|-----------------|---------------|---------------------|---------------------|
D|-----------------|---------------|---------------------|---------------------|
A|---7-7-7-7-7-7-7-|-7-7-7-7-7-5-7-|-8-8-8-8-8-8-8-8-8-8-|-8-8-8-8-8-8-8-8-8-8-|
E|-----------------|---------------|---------------------|---------------------|



[Chorus/Outro]

"There's something..."
G|----------|---------|
D|----------|---------|
A|--0-------|--0-0----|
E|----3--1--|------3--|



[Chrous]
There's something about you
That I can't quite put my finger in


************************************

| x   Dead note
| (n) Ghost note
| h   Hammer-on
| p   Pull-off
| r   Ring out
| /   Slide up
| \   Slide down
| ~   Vibrato

************************************

            
            
Suggest correction
Creating personal tab
Creating personal tab
You can edit any tab online and save it as your Personal.

You can edit, replace or remove any tab part or add personal notes – all changes will be seen only by you.

Personal tabs can be accessed anytime from any device, even offline.
Learn more »
Give kudos to tab author, rate the tab!
1 2 3 4 5
comments
print report bad tab
guest
You may want to rate the tab now too:
select rating
Wanna post a correction for this tab? Suggest correction