Oops, an error
Loading. Please wait.

California Deluxe Edition album tab

322 views 12 this week
no commentswrite comment
1 2 3 4 5
2 more votes to show rating
add to favorites
×
Save as Personal and add changes to this tab that will be seen only by you. Learn more ›
×
You can save this tab as Personal to edit and correct it or add notes. All changes will be seen only by you. Learn more »
launch autoscroll
font size
0
reset
how to read this tab
guitar tuner
edit
Autoscroll
slow
fast
+/-
esc
set tempo
stop
Blink-182
California Deluxe Edition Full Album
Tabbed by Brands99


1.  Parking Lot
2.  Misery
3.  Good Old Days
4.  Don't Mean Anything 
5.  Hey I'm Sorry
6.  Last Train Home
7.  Wildfire  (tabbed by Sashki)
8.  6/8 (tabbed by jjhand)
9.  Long Lost Feeling 
10. Bottom of the Ocean 
11. Can't Get you more Pregnant 
12. Bored to Death Acoustic (tabbed by LuKenneth) 


---------------------------------------------------------------------------------------------------
                                         1. Parking Lot
---------------------------------------------------------------------------------------------------
Tuning: Standard

[Intro]
e|---------|-----|---------|-----|---------|-------------------------|---------------------|
B|---------|--3--|---------|-----|---------|-7-------7-------7-------|-5----5--5--5--------|
G|-2--2--2-|--2--|-2--2--2-|--2--|-2--2--2-|---7---7---7---7---7---7-|-7b9--9--9--9---x\---|
D|-0--0--0-|--0--|-0--0--0-|--0--|-0--0--0-|-----7-------7-------7---|---------------------|
A|---------|-----|---------|--x--|---------|-------------------------|---------------------|
E|---------|-----|---------|--2--|---------|-------------------------|---------------------|
     PM              PM               PM 



[Verse 1]
e|----------------------|----------------------|----------------------|----------------------|
B|----------------------|----------------------|----------------------|----------------------|
G|----------------------|----------------------|----------------------|----------------------|
D|--7--7--7----7--7--7--|--7--7--7----7--7--7--|--7-------------------|----------------------|
A|--5--5--5----5--5--5--|--5--5--5----5--5--5--|--5--5--5----5--5--5--|--5--5--5----5--5--5--|
E|----------------------|----------------------|-----2--2----2--2--2--|--2--2--2----2--2--2--|
            PM                     PM                     PM                     PM

e|-------------------|--------------------------|--------------------------------|
B|-------------------|--------------------------|--------------------------------|
G|-------------------|--------------------------|--------------------------------|
D|-------------------|--------------------------|--------------------------------|
A|--5--5----5--5--5--|--5--5--5----5--5--5---5--|--7---7---7---7----7-7---x-7-7--|
E|--3--3----3--3--3--|--3--3--3----3--3--3---3--|--5---5---5---5----5-5---x-5-5--|
          PM                     PM           

e|--------------------------|--------------------------|--------------------------|--------------------------|
B|--------------------------|--------------------------|--------------------------|--------------------------|
G|--11-11---11---14-14---14-|--11-11---11---14-14---14-|--11-11---11---14-14---14-|--11-11---11---14-14---14-|
D|---x--x----x----x--x----x-|---x--x----x----x--x----x-|---x--x----x----x--x----x-|---x--x----x----x--x----x-|
A|---9--9----9---12-12---12-|---9--9----9---12-12---12-|---9--9----9---12-12---12-|---9--9----9---12-12---12-|
E|--------------------------|--------------------------|--------------------------|--------------------------|

e|-------------------------------------------------------|-----------------------------------|
B|-------------------------------------------------------|-----------------------------------|
G|---12--12--12--12--12--12--12--12--12--12--12--12--12--|-14---14---14---14----14-14-14-14--|
D|----x---x---x---x---x---x---x---x---x---x---x---x---x--|--x----x---------x-----x--x--x--x--|
A|---10--10--10--10--10--10--10--10--10--10--10--10--10--|-12---12---12---12----12-12-12-12--|
E|-------------------------------------------------------|-----------------------------------|



[Chorus 1]
e|----------------|---------------|------------------------|-------------------------|
B|----------------|---------------|------------------------|-------------------------|
G|----------------|---------------|-7--7--7--7--7--7--7--7-|-11-11-11-11-11-11-11-11-|
D|----------------|---------------|-x--x--x--x--x--x--x--x-|--x--x--x--x--x--x--x--x-|
A|--2---2---2---2-|-4---4---4---4-|-5--5--5--5--5--5--5--5-|--9--9--9--9--9--9--9--9-|
E|--3---3---3---3-|-5---5---5---5-|------------------------|-------------------------|
   
e|----------------|---------------|------------------------|----------------------|
B|----------------|---------------|------------------------|----------------------|
G|----------------|---------------|-7--7--7--7--7--7--7--7-|-x--11-11----x--11-11-|
D|----------------|---------------|-x--x--x--x--x--x--x--x-|-x---x--x----x---x--x-|
A|--2---2---2---2-|-4---4---4---4-|-5--5--5--5--5--5--5--5-|-x---9--9----x---9--9-|
E|--3---3---3---3-|-5---5---5---5-|------------------------|----------------------|
   
e|---------------------|---------------------|------------------------|-------------------------|
B|---------------------|---------------------|------------------------|-------------------------|
G|-4--4--4--4--4--4--4-|-6--6--6--6--6--6--6-|-7--7--7--7--7--7--7--7-|-11-11-11-11-11-11-11-11-|
D|-x--x--x--x--x--x--x-|-x--x--x--x--x--x--x-|-x--x--x--x--x--x--x--x-|--x--x--x--x--x--x--x--x-|
A|-2--2--2--2--2--2--2-|-4--4--4--4--4--4--4-|-5--5--5--5--5--5--5--5-|--9--9--9--9--9--9--9--9-|
E|-3--3--3--3--3--3--3-|-5--5--5--5--5--5--5-|------------------------|-------------------------|

e|----------------------|----------|
B|----------------------|----------|
G|---12----12---12---12-|----------|
D|----x-----x----x----x-|--7---7\--|
A|---10----10---10---10-|--7---7\--|
E|----------------------|--5---5\--|



[Post-Chorus 1]
e|--------------------------|------------------------|-------------------------|------------------------|
B|--------------------------|------------------------|-------------------------|------------------------|
G|--11-11-11-11-11-11-11-11-|11-11-11-11-11-11-11-11-|--9--9--9--9--9--9--9--9-|-9--9--9--9--9--9--9--9-|
D|---x--x--x--x--x--x--x--x-|-x--x--x--x--x--x--x--x-|--x--x--x--x--x--x--x--x-|-x--x--x--x--x--x--x--x-|
A|---9--9--9--9--9--9--9--9-|-9--9--9--9--9--9--9--9-|--7--7--7--7--7--7--7--7-|-7--7--7--7--7--7--7--7-|
E|--------------------------|------------------------|-------------------------|------------------------|

e|-------|------|
B|-------|------|
G|-------|------|
D|---5/--|--7\--|
A|---5/--|--7\--|
E|---3/--|--5\--|



[Intro]
e|---------|-----|---------|-----|---------|-------------------------|---------------------|
B|---------|--3--|---------|-----|---------|-7-------7-------7-------|-5----5--5--5--------|
G|-2--2--2-|--2--|-2--2--2-|--2--|-2--2--2-|---7---7---7---7---7---7-|-7b9--9--9--9---x\---|
D|-0--0--0-|--0--|-0--0--0-|--0--|-0--0--0-|-----7-------7-------7---|---------------------|
A|---------|-----|---------|--x--|---------|-------------------------|---------------------|
E|---------|-----|---------|--2--|---------|-------------------------|---------------------|
     PM              PM               PM 



[Verse 2]
e|-----------------------------------------|-----------------------------------------|
B|-----------------------------------------|-----------------------------------------|
G|-----------------------------------------|-----------------------------------------|
D|--x--x--7---x--x--7---x--x--7---x--x--7--|-----------------------------------------|
A|--x--x--5---x--x--5---x--x--5---x--x--5--|--x--x--5---x--x--5---x--x--5---x--x--5--|
E|-----------------------------------------|--x--x--2---x--x--2---x--x--2---x--x--2--|

e|-------------------------|------------------------|-------------------------|------------------------|
B|-------------------------|------------------------|-------------------------|------------------------|
G|-------------------------|------------------------|-------------------------|------------------------|
D|-------------------------|------------------------|-------------------------|------------------------|
A|--5--5--5--5--5--5--5--5-|-5--5--5--5--5--5--5--5-|--7--7--7--7--7--7--7--7-|-7--7--7--7--7--7--7--7-|
E|--3--3--3--3--3--3--3--3-|-3--3--3--3--3--3--3--3-|--5--5--5--5--5--5--5--5-|-5--5--5--5--5--5--5--5-|

e|-----------------------|---------------------|---------------------|----------------------|
B|-----------------------|---------------------|---------------------|----------------------|
G|---x--x--11---x--x--14-|-x--x--11---x--x--14-|-x--x--11---x--x--14-|--x--x--11---x--x--14-|
D|---x--x---x---x--x---x-|-x--x---x---x--x---x-|-x--x---x---x--x---x-|--x--x---x---x--x---x-|
A|---x--x---9---x--x--12-|-x--x---9---x--x--12-|-x--x---9---x--x--12-|--x--x---9---x--x--12-|
E|-----------------------|---------------------|---------------------|----------------------|

e|------------------------------|----------------------------|---------------------|---------------------|
B|------------------------------|----------------------------|---------------------|---------------------|
G|---12--12--12--12--12--12--12-|-12--12--12--12--12--12--12-|---------------------|---------------------|
D|----x---x---x---x---x---x---x-|--x---x---x---x---x---x---x-|-7--7--7--7--7--7--7-|-7--7--7--7--7--7--7-|
A|---10--10--10--10--10--10--10-|-10--10--10--10--10--10--10-|-7--7--7--7--7--7--7-|-7--7--7--7--7--7--7-|
E|------------------------------|----------------------------|-5--5--5--5--5--5--5-|-5--5--5--5--5--5--5-|



[Chorus 2]
e|----------------|---------------|------------------------|-------------------------|
B|----------------|---------------|------------------------|-------------------------|
G|----------------|---------------|-7--7--7--7--7--7--7--7-|-11-11-11-11-11-11-11-11-|
D|----------------|---------------|-x--x--x--x--x--x--x--x-|--x--x--x--x--x--x--x--x-|
A|--2---2---2---2-|-4---4---4---4-|-5--5--5--5--5--5--5--5-|--9--9--9--9--9--9--9--9-|
E|--3---3---3---3-|-5---5---5---5-|------------------------|-------------------------|
   
e|----------------|---------------|------------------------|----------------------|
B|----------------|---------------|------------------------|----------------------|
G|----------------|---------------|-7--7--7--7--7--7--7--7-|-x--11-11----x--11-11-|
D|----------------|---------------|-x--x--x--x--x--x--x--x-|-x---x--x----x---x--x-|
A|--2---2---2---2-|-4---4---4---4-|-5--5--5--5--5--5--5--5-|-x---9--9----x---9--9-|
E|--3---3---3---3-|-5---5---5---5-|------------------------|----------------------|

e|---------------------|---------------------|------------------------|-------------------------|
B|---------------------|---------------------|------------------------|-------------------------|
G|-4--4--4--4--4--4--4-|-6--6--6--6--6--6--6-|-7--7--7--7--7--7--7--7-|-11-11-11-11-11-11-11-11-|
D|-x--x--x--x--x--x--x-|-x--x--x--x--x--x--x-|-x--x--x--x--x--x--x--x-|--x--x--x--x--x--x--x--x-|
A|-2--2--2--2--2--2--2-|-4--4--4--4--4--4--4-|-5--5--5--5--5--5--5--5-|--9--9--9--9--9--9--9--9-|
E|-3--3--3--3--3--3--3-|-5--5--5--5--5--5--5-|------------------------|-------------------------|

e|----------------------|----------|
B|----------------------|----------|
G|---12----12---12---12-|----------|
D|----x-----x----x----x-|--7---7\--|
A|---10----10---10---10-|--7---7\--|
E|----------------------|--5---5\--|

e|------------------------------------------------------------------------------| 
B|------------------------------------------------------------------------------|
G|---12-x---12-x---12-x---12-x--------------------7---7---7---------------------|
D|---x--x---x--x---x--x---x--x---7---7\-----------7---7---7----7-7-7-7-7-7-7-7--|
A|---10-x---10-x---10-x---10-x---7---7\-----------5---5---5----7-7-7-7-7-7-7-7--|
E|-------------------------------5---5\------------------------5-5-5-5-5-5-5-5--|



[Bridge]
Guitar 1
e|-------------------------------|-----------------------------|--------------------------|
B|-------------------------------|-----------------------------|--------------------------|
G|-7---7---7---------------------|--11---11---11----9--9--9----|--11---11---11----7--7--7-|
D|-7---7---7----7-7-7-7-7-7-7-7--|---x----x----x----x--x--x----|---x----x----x----x--x--x-|
A|-5---5---5----7-7-7-7-7-7-7-7--|---9----9----9----7--7--7----|---9----9----9----5--5--5-|
E|--------------5-5-5-5-5-5-5-5--|-----------------------------|--------------------------|

e|-------------------------|------------------------|
B|-------------------------|------------------------|
G|--11--11--11----12-12-12-|--11--11--11----9--9--9-|
D|---x---x---x-----x--x--x-|---x---x---x----x--x--x-|
A|---9---9---9----10-10-10-|---9---9---9----7--7--7-|
E|-------------------------|------------------------|

e|-------------------------|------------------------|-------------------------|------------------------|
B|-------------------------|------------------------|-------------------------|------------------------|
G|--11--11--11----12-12-12-|--11--11--11----7--7--7-|--11--11--11----12-12-12-|--11--11--11----9--9--9-|
D|---x---x---x-----x--x--x-|---x---x---x----x--x--x-|---x---x---x-----x--x--x-|---x---x---x----x--x--x-|
A|---9---9---9----10-10-10-|---9---9---9----5--5--5-|---9---9---9----10-10-10-|---9---9---9----7--7--7-|
E|-------------------------|------------------------|-------------------------|------------------------|

Guitar 2
e|------------------------|------------------------|------------------------------------------------------|
B|------------------------|------------------------|-------------------10t15--10t14--10t15--10t14--10t15--|
G|-7t11--7t12--7t14--7t12-|-7t11--7t12--7t14--7t12-|-7t11--7t12--7t14-------------------------------------|
D|------------------------|------------------------|------------------------------------------------------|
A|------------------------|------------------------|------------------------------------------------------|
E|------------------------|------------------------|------------------------------------------------------|

e|------------------------|------------------------|
B|------------------------|------------------------|
G|-7t11--7t12--7t14--7t12-|-7t11--7t12--7t14--7t12-|
D|------------------------|------------------------|
A|------------------------|------------------------|
E|------------------------|------------------------|



[Chorus 3]  
e|-------------------|---------------------|------------------------|------------------------|
B|-------------------|---------------------|------------------------|------------------------|
G|-------------------|---------------------|-4--4--4--4--4--4--4--4-|------------------------|
D|--5--5--5--5--5--5-|-5--7--7--7--7--7--7-|-4--4--4--4--4--4--4--4-|-4--4--4--4--4--4--4--4-|
A|--5--5--5--5--5--5-|-5--7--7--7--7--7--7-|-2--2--2--2--2--2--2--2-|-4--4--4--4--4--4--4--4-|
E|--3--3--3--3--3--3-|-3--5--5--5--5--5--5-|------------------------|-2--2--2--2--2--2--2--2-|

e|----------------------|------------------|------------------------|---------------------|
B|----------------------|------------------|------------------------|---------------------|
G|----------------------|------------------|-7--7--7--7--7--7--7--7-|--x-11-11---x--11-11-|
D|--5--5--5--5--5--5--5-|-7--7--7--7--7--7-|-x--x--x--x--x--x--x--x-|--x--x--x---x--x--x--|
A|--5--5--5--5--5--5--5-|-7--7--7--7--7--7-|-5--5--5--5--5--5--5--5-|--x--9--9---x--9--9--|
E|--3--3--3--3--3--3--3-|-5--5--5--5--5--5-|------------------------|---------------------|
     
e|---------------------|---------------------|------------------------|--------------------------|
B|---------------------|---------------------|------------------------|--------------------------|
G|-4--4--4--4--4--4--4-|-6--6--6--6--6--6--6-|-7--7--7--7--7--7--7--7-|-11-11-11-11-11-11-11-11--|
D|-x--x--x--x--x--x--x-|-x--x--x--x--x--x--x-|-x--x--x--x--x--x--x--x-|--x--x--x--x--x--x--x--x--|
A|-2--2--2--2--2--2--2-|-4--4--4--4--4--4--4-|-5--5--5--5--5--5--5--5-|--9--9--9--9--9--9--9--9--|
E|-3--3--3--3--3--3--3-|-5--5--5--5--5--5--5-|------------------------|--------------------------|
 
e|----------------------|----------|
B|----------------------|----------|
G|---12----12---12---12-|----------|
D|----x-----x----x----x-|--7---7\--|
A|---10----10---10---10-|--7---7\--|
E|----------------------|--5---5\--|



[Post-Chorus 3]
e|-------------------------|-------------------------|-------------------------|------------------------|
B|-------------------------|-------------------------|-------------------------|------------------------|
G|-11-11-11-11-11-11-11-11-|-11-11-11-11-11-11-11-11-|--9--9--9--9--9--9--9--9-|-9--9--9--9--9--9--9--9-|
D|--x--x--x--x--x--x--x--x-|--x--x--x--x--x--x--x--x-|--x--x--x--x--x--x--x--x-|-x--x--x--x--x--x--x--x-|
A|--9--9--9--9--9--9--9--9-|--9--9--9--9--9--9--9--9-|--7--7--7--7--7--7--7--7-|-7--7--7--7--7--7--7--7—|
E|-------------------------|-------------------------|-------------------------|------------------------|

e|-------|------|-----|
B|-------|------|-----|
G|-------|------|--7--|
D|---5/--|--7\--|--7--|
A|---5/--|--7\--|--5--|
E|---3/--|--5\--|-----|



[Verse 1: Matt Skiba]
Remember the days
We would drink on the train
On our way to the show, Chicago
Naked Raygun live at the Cabaret Metro
Ten bucks to get into a fight you can't win
Boots and braces, yellow laces
Oxblood traces of the night before

[Chorus: Matt Skiba (Mark Hoppus)]
We are forgotten young suburbia
Loose on the streets of California
Underneath fluorescent lights
We'll waste the best nights of our life
Fuck this place, let's put up a parking lot
(Na, na na, na na, na na
Na, na na, na na, na na)
Fuck this place, let's put up a parking lot

[Verse 2: Mark Hoppus]
I can't wait 'til I'm off of work
I'll meet my friends at the Target curb
I rolled my ankle, Matt just broke his wrist
I climbed through your window at 3am
We listened to The Smiths and The Violent Femmes
Yeah, we both sang, "Why can't I get one kiss?"

[Chorus: Matt Skiba]
We are forgotten young suburbia
Loose on the streets of California
Underneath fluorescent lights
We'll waste the best nights of our life
Fuck this place, let's put up a parking lot

[Bridge: Matt Skiba]
We are the broken
No end in sight
We're the forgotten soldiers you left behind
There's no use trying
We lost the war
Now the dead and dying
Are back to even the score

[Chorus: Matt Skiba & Mark Hoppus]
We are forgotten young suburbia
Loose on the streets of California
Underneath fluorescent lights
We'll waste the best nights of our life
Fuck this place, let's put up a parking lot
Na, na na, na na, na na
Na, na na, na na, na na
Fuck this place, let's put up a parking lot


---------------------------------------------------------------------------------------------------
                                         2. Misery
---------------------------------------------------------------------------------------------------
Tuning: Standard

[Intro & Verse]
e|----2----2----2----2--|----2-----2-----2-----2--|
B|----3----3----3----3--|----3-----3-----3-----3--|
G|----------------------|--0-----0-----0-----0----|
D|--2----2----2----2----|-------------------------|
A|----------------------|-------------------------|
E|----------------------|-------------------------| 

e|----2----2----2----2--|----2-----2-----2-----2--|
B|----3----3----3----3--|----3-----3-----3-----3--|
G|----------------------|-------------------------|
D|--0----0----0----0----|-------------------------| x3
A|----------------------|--3-----3-----3-----3----|
E|----------------------|-------------------------|



[Pre-Chorus]
e|-------|-------|------------------|---------|
B|-------|-------|------------------|---------|
G|-9-9-9-|-5-5-5-|------------------|---------|
D|-9-9-9-|-5-5-5-|-5--5--5--5--5--5-|-x-x-x-x-|
A|-7-7-7-|-3-3-3-|-5--5--5--5--5--5-|-x-x-x-x-|
E|-------|-------|-3--3--3--3--3--3-|-x-x-x-x-|

e|-------|-------|----------------------------------|
B|-------|-------|----------------------------------|
G|-9-9-9-|-5-5-5-|-7--7-7-7-7-7-7-7-7-7-7-7-7-7-7-7-|
D|-9-9-9-|-5-5-5-|-7--7-7-7-7-7-7-7-7-7-7-7-7-7-7-7-|
A|-7-7-7-|-3-3-3-|-5--5-5-5-5-5-5-5-5-5-5-5-5-5-5-5-|
E|-------|-------|----------------------------------|
                                PM 



[Chorus]
Guitar 1
e|---------------------------------|---------------------------------|
B|---------------------------------|---------------------------------|
G|---------------------------------|-7-7-7-7-7-7-7-7-7-7-7-7-7-7-7-7-|
D|-5-5-5-5-5-5-5-5-5-5-5-5-5-5-5-5-|-7-7-7-7-7-7-7-7-7-7-7-7-7-7-7-7-|
A|-5-5-5-5-5-5-5-5-5-5-5-5-5-5-5-5-|-5-5-5-5-5-5-5-5-5-5-5-5-5-5-5-5-|
E|-3-3-3-3-3-3-3-3-3-3-3-3-3-3-3-3-|---------------------------------|

e|---------------------------------|---------------------------------|
B|---------------------------------|---------------------------------|
G|-9-9-9-9-9-9-9-9-9-9-9-9-9-9-9-9-|-5-5-5-5-5-5-5-5-5-5-5-5-5-5-5-5-|
D|-9-9-9-9-9-9-9-9-9-9-9-9-9-9-9-9-|-5-5-5-5-5-5-5-5-5-5-5-5-5-5-5-5-|
A|-7-7-7-7-7-7-7-7-7-7-7-7-7-7-7-7-|-3-3-3-3-3-3-3-3-3-3-3-3-3-3-3-3-|
E|---------------------------------|---------------------------------| 

Guitar 2
e|-------------------------|-------------------------|-------------------------|--------------------------|
B|-------------------------|-------------------------|-------------------------|--------------------------|
G|-12-12-12-12-12-12-12-12-|-12-12-12-12-12-12-12-12-|-11-11-11-11-11-11-11-11-|-11-11-11-11-11-11-11-11--|
D|-------------------------|-------------------------|-------------------------|--------------------------|
A|-10-10-10-10-10-10-10-10-|-10-10-10-10-10-10-10-10-|--9--9--9--9--9--9--9--9-|--9--9--9--9--9--9--9--9--|
E|-------------------------|-------------------------|-------------------------|--------------------------| 

e|-------------------------------v-----------------------------------|
B|-8------8-------8-------8------|-----------------------------------|
G|-----9------9-------9-------9--|-9--------9--------9--------9------|
D|-------------------------------|-----10-------10-------10-------10-|
A|-------------------------------|-----------------------------------|
E|-------------------------------|-----------------------------------|

Guitar 1
e|---------------------------------|---------------------------------|
B|---------------------------------|---------------------------------|
G|---------------------------------|-7-7-7-7-7-7-7-7-7-7-7-7-7-7-7-7-|
D|-5-5-5-5-5-5-5-5-5-5-5-5-5-5-5-5-|-7-7-7-7-7-7-7-7-7-7-7-7-7-7-7-7-|
A|-5-5-5-5-5-5-5-5-5-5-5-5-5-5-5-5-|-5-5-5-5-5-5-5-5-5-5-5-5-5-5-5-5-|
E|-3-3-3-3-3-3-3-3-3-3-3-3-3-3-3-3-|---------------------------------|

e|---------------------------------|---------------------------------|
B|---------------------------------|---------------------------------|
G|-9-9-9-9-9-9-9-9-9-9-9-9-9-9-9-9-|-5-5-5-5-5-5-5-5-5-5-5-5-5-5-5-5-|
D|-9-9-9-9-9-9-9-9-9-9-9-9-9-9-9-9-|-5-5-5-5-5-5-5-5-5-5-5-5-5-5-5-5-|
A|-7-7-7-7-7-7-7-7-7-7-7-7-7-7-7-7-|-3-3-3-3-3-3-3-3-3-3-3-3-3-3-3-3-|
E|---------------------------------|---------------------------------| 

Guitar 2
e|-------------------------|-------------------------|-------------------------|--------------------------|
B|-------------------------|-------------------------|-------------------------|--------------------------|
G|-12-12-12-12-12-12-12-12-|-12-12-12-12-12-12-12-12-|-11-11-11-11-11-11-11-11-|-11-11-11-11-11-11-11-11--|
D|-------------------------|-------------------------|-------------------------|--------------------------|
A|-10-10-10-10-10-10-10-10-|-10-10-10-10-10-10-10-10-|--9--9--9--9--9--9--9--9-|--9--9--9--9--9--9--9--9--|
E|-------------------------|-------------------------|-------------------------|--------------------------| 

e|-------------------------------v-----------------------------------|
B|-8------8-------8-------8------|-----------------------------------|
G|-----9------9-------9-------9--|-9--------9--------9--------9------|
D|-------------------------------|-----10-------10-------10-------10-|
A|-------------------------------|-----------------------------------|
E|-------------------------------|-----------------------------------|



[Intro]
e|----2----2----2----2-|
B|----3----3----3----3-|
G|---------------------|
D|--2----2----2----2---|
A|---------------------|
E|---------------------|



[Verse 2]
e|----2----2----2----2--|----2-----2-----2-----2--|
B|----3----3----3----3--|----3-----3-----3-----3--|
G|----------------------|--0-----0-----0-----0----|
D|--2----2----2----2----|-------------------------|
A|----------------------|-------------------------|
E|----------------------|-------------------------| 

e|----2----2----2----2--|----2-----2-----2-----2--|
B|----3----3----3----3--|----3-----3-----3-----3--|
G|----------------------|-------------------------|
D|--0----0----0----0----|-------------------------| x2
A|----------------------|--3-----3-----3-----3----|
E|----------------------|-------------------------|



[Pre-Chorus]
e|-------|-------|------------------|---------|
B|-------|-------|------------------|---------|
G|-9-9-9-|-5-5-5-|------------------|---------|
D|-9-9-9-|-5-5-5-|-5--5--5--5--5--5-|-x-x-x-x-|
A|-7-7-7-|-3-3-3-|-5--5--5--5--5--5-|-x-x-x-x-|
E|-------|-------|-3--3--3--3--3--3-|-x-x-x-x-|

e|-------|-------|----------------------------------|
B|-------|-------|----------------------------------|
G|-9-9-9-|-5-5-5-|-7--7-7-7-7-7-7-7-7-7-7-7-7-7-7-7-|
D|-9-9-9-|-5-5-5-|-7--7-7-7-7-7-7-7-7-7-7-7-7-7-7-7-|
A|-7-7-7-|-3-3-3-|-5--5-5-5-5-5-5-5-5-5-5-5-5-5-5-5-|
E|-------|-------|----------------------------------|
                                PM 



[Chorus] 
Guitar 1
e|---------------------------------|---------------------------------|
B|---------------------------------|---------------------------------|
G|---------------------------------|-7-7-7-7-7-7-7-7-7-7-7-7-7-7-7-7-|
D|-5-5-5-5-5-5-5-5-5-5-5-5-5-5-5-5-|-7-7-7-7-7-7-7-7-7-7-7-7-7-7-7-7-|
A|-5-5-5-5-5-5-5-5-5-5-5-5-5-5-5-5-|-5-5-5-5-5-5-5-5-5-5-5-5-5-5-5-5-|
E|-3-3-3-3-3-3-3-3-3-3-3-3-3-3-3-3-|---------------------------------|

e|---------------------------------|---------------------------------|
B|---------------------------------|---------------------------------|
G|-9-9-9-9-9-9-9-9-9-9-9-9-9-9-9-9-|-5-5-5-5-5-5-5-5-5-5-5-5-5-5-5-5-|
D|-9-9-9-9-9-9-9-9-9-9-9-9-9-9-9-9-|-5-5-5-5-5-5-5-5-5-5-5-5-5-5-5-5-|
A|-7-7-7-7-7-7-7-7-7-7-7-7-7-7-7-7-|-3-3-3-3-3-3-3-3-3-3-3-3-3-3-3-3-|
E|---------------------------------|---------------------------------| 

Guitar 2
e|-------------------------|-------------------------|-------------------------|--------------------------|
B|-------------------------|-------------------------|-------------------------|--------------------------|
G|-12-12-12-12-12-12-12-12-|-12-12-12-12-12-12-12-12-|-11-11-11-11-11-11-11-11-|-11-11-11-11-11-11-11-11--|
D|-------------------------|-------------------------|-------------------------|--------------------------|
A|-10-10-10-10-10-10-10-10-|-10-10-10-10-10-10-10-10-|--9--9--9--9--9--9--9--9-|--9--9--9--9--9--9--9--9--|
E|-------------------------|-------------------------|-------------------------|--------------------------| 

e|-------------------------------v-----------------------------------|
B|-8------8-------8-------8------|-----------------------------------|
G|-----9------9-------9-------9--|-9--------9--------9--------9------|
D|-------------------------------|-----10-------10-------10-------10-| (x3)
A|-------------------------------|-----------------------------------|
E|-------------------------------|-----------------------------------|



[Bridge] 
e|---------------------------------|---------------------------------|
B|---------------------------------|---------------------------------|
G|---------------------------------|-7-7-7-7-7-7-7-7-7-7-7-7-7-7-7-7-|
D|-5-5-5-5-5-5-5-5-5-5-5-5-5-5-5-5-|-7-7-7-7-7-7-7-7-7-7-7-7-7-7-7-7-|
A|-5-5-5-5-5-5-5-5-5-5-5-5-5-5-5-5-|-5-5-5-5-5-5-5-5-5-5-5-5-5-5-5-5-|
E|-3-3-3-3-3-3-3-3-3-3-3-3-3-3-3-3-|---------------------------------|
                PM                                PM                    (x4)
e|---------------------------------|---------------------------------|
B|---------------------------------|---------------------------------|
G|-9-9-9-9-9-9-9-9-9-9-9-9-9-9-9-9-|-5-5-5-5-5-5-5-5-5-5-5-5-5-5-5-5-|
D|-9-9-9-9-9-9-9-9-9-9-9-9-9-9-9-9-|-5-5-5-5-5-5-5-5-5-5-5-5-5-5-5-5-|
A|-7-7-7-7-7-7-7-7-7-7-7-7-7-7-7-7-|-3-3-3-3-3-3-3-3-3-3-3-3-3-3-3-3-|
E|---------------------------------|---------------------------------| 
                PM                                PM 



[Chorus] 
Guitar 1
e|---------------------------------|---------------------------------|
B|---------------------------------|---------------------------------|
G|---------------------------------|-7-7-7-7-7-7-7-7-7-7-7-7-7-7-7-7-|
D|---------------------------------|-7-7-7-7-7-7-7-7-7-7-7-7-7-7-7-7-|
A|---------------------------------|-5-5-5-5-5-5-5-5-5-5-5-5-5-5-5-5-|
E|---------------------------------|---------------------------------|

e|---------------------------------|---------------------------------|
B|---------------------------------|---------------------------------|
G|-9-9-9-9-9-9-9-9-9-9-9-9-9-9-9-9-|-5-5-5-5-5-5-5-5-5-5-5-5-5-5-5-5-|
D|-9-9-9-9-9-9-9-9-9-9-9-9-9-9-9-9-|-5-5-5-5-5-5-5-5-5-5-5-5-5-5-5-5-|
A|-7-7-7-7-7-7-7-7-7-7-7-7-7-7-7-7-|-3-3-3-3-3-3-3-3-3-3-3-3-3-3-3-3-|
E|---------------------------------|---------------------------------| 

Guitar 2
e|-------------------------|-------------------------|-------------------------|--------------------------|
B|-------------------------|-------------------------|-------------------------|--------------------------|
G|-12-12-12-12-12-12-12-12-|-12-12-12-12-12-12-12-12-|-11-11-11-11-11-11-11-11-|-11-11-11-11-11-11-11-11--|
D|-------------------------|-------------------------|-------------------------|--------------------------|
A|-10-10-10-10-10-10-10-10-|-10-10-10-10-10-10-10-10-|--9--9--9--9--9--9--9--9-|--9--9--9--9--9--9--9--9--|
E|-------------------------|-------------------------|-------------------------|--------------------------| 

e|-------------------------------v-----------------------------------|
B|-8------8-------8-------8------|-----------------------------------|
G|-----9------9-------9-------9--|-9--------9--------9--------9------|
D|-------------------------------|-----10-------10-------10-------10-|
A|-------------------------------|-----------------------------------|
E|-------------------------------|-----------------------------------| 

Guitar 1
e|---------------------------------|---------------------------------|
B|---------------------------------|---------------------------------|
G|---------------------------------|-7-7-7-7-7-7-7-7-7-7-7-7-7-7-7-7-|
D|-5-5-5-5-5-5-5-5-5-5-5-5-5-5-5-5-|-7-7-7-7-7-7-7-7-7-7-7-7-7-7-7-7-|
A|-5-5-5-5-5-5-5-5-5-5-5-5-5-5-5-5-|-5-5-5-5-5-5-5-5-5-5-5-5-5-5-5-5-|
E|-3-3-3-3-3-3-3-3-3-3-3-3-3-3-3-3-|---------------------------------|

e|---------------------------------|---------------------------------|
B|---------------------------------|---------------------------------|
G|-9-9-9-9-9-9-9-9-9-9-9-9-9-9-9-9-|-5-5-5-5-5-5-5-5-5-5-5-5-5-5-5-5-|
D|-9-9-9-9-9-9-9-9-9-9-9-9-9-9-9-9-|-5-5-5-5-5-5-5-5-5-5-5-5-5-5-5-5-|
A|-7-7-7-7-7-7-7-7-7-7-7-7-7-7-7-7-|-3-3-3-3-3-3-3-3-3-3-3-3-3-3-3-3-|
E|---------------------------------|---------------------------------| 

Guitar 2
e|-------------------------|-------------------------|-------------------------|--------------------------|
B|-------------------------|-------------------------|-------------------------|--------------------------|
G|-12-12-12-12-12-12-12-12-|-12-12-12-12-12-12-12-12-|-11-11-11-11-11-11-11-11-|-11-11-11-11-11-11-11-11--|
D|-------------------------|-------------------------|-------------------------|--------------------------|
A|-10-10-10-10-10-10-10-10-|-10-10-10-10-10-10-10-10-|--9--9--9--9--9--9--9--9-|--9--9--9--9--9--9--9--9--|
E|-------------------------|-------------------------|-------------------------|--------------------------| 

e|-------------------------------v-----------------------------------|
B|-8------8-------8-------8------|-----------------------------------|
G|-----9------9-------9-------9--|-9--------9--------9--------9------|
D|-------------------------------|-----10-------10-------10-------10-|
A|-------------------------------|-----------------------------------|
E|-------------------------------|-----------------------------------|



[Outro]
Guitar 1
e|---------------------------------|---------------------------------|
B|---------------------------------|---------------------------------|
G|---------------------------------|-7-7-7-7-7-7-7-7-7-7-7-7-7-7-7-7-|
D|-5-5-5-5-5-5-5-5-5-5-5-5-5-5-5-5-|-7-7-7-7-7-7-7-7-7-7-7-7-7-7-7-7-|
A|-5-5-5-5-5-5-5-5-5-5-5-5-5-5-5-5-|-5-5-5-5-5-5-5-5-5-5-5-5-5-5-5-5-|
E|-3-3-3-3-3-3-3-3-3-3-3-3-3-3-3-3-|---------------------------------|

e|---------------------------------|---------------------------------|
B|---------------------------------|---------------------------------|
G|-9-9-9-9-9-9-9-9-9-9-9-9-9-9-9-9-|-5-5-5-5-5-5-5-5-5-5-5-5-5-5-5-5-|
D|-9-9-9-9-9-9-9-9-9-9-9-9-9-9-9-9-|-5-5-5-5-5-5-5-5-5-5-5-5-5-5-5-5-|
A|-7-7-7-7-7-7-7-7-7-7-7-7-7-7-7-7-|-3-3-3-3-3-3-3-3-3-3-3-3-3-3-3-3-|
E|---------------------------------|---------------------------------| 

Guitar 2
e|-------------------------|-------------------------|-------------------------|--------------------------|
B|-------------------------|-------------------------|-------------------------|--------------------------|
G|-12-12-12-12-12-12-12-12-|-12-12-12-12-12-12-12-12-|-11-11-11-11-11-11-11-11-|-11-11-11-11-11-11-11-11--|
D|-------------------------|-------------------------|-------------------------|--------------------------|
A|-10-10-10-10-10-10-10-10-|-10-10-10-10-10-10-10-10-|--9--9--9--9--9--9--9--9-|--9--9--9--9--9--9--9--9--|
E|-------------------------|-------------------------|-------------------------|--------------------------| 

e|-------------------------------v-----------------------------------|
B|-8------8-------8-------8------|-----------------------------------|
G|-----9------9-------9-------9--|-9--------9--------9--------9------|
D|-------------------------------|-----10-------10-------10-------10-| (x2)
A|-------------------------------|-----------------------------------|
E|-------------------------------|-----------------------------------|



[Verse 1: Mark]
I'm a wreck, I'm out of time
I barely made it out alive
I'm not bent, I'm not cracked
I'm just broken
I watched the fire burn the sea
I wrapped my car around a tree
Hold me up, underneath
This heavy burden

[Pre-Chorus: Matt]
There's a halo in the distance
Salvation's barely out of reach

[Chorus: Matt]
Torn apart like the brokenhearted
Up in smoke with the fire we started
Misery loves company
I don't need anyone
Smash it up like there's no tomorrow
Leave me here with the fear and sorrow
Misery loves company
I don't need anyone

[Verse 2: Mark & Matt]
Tied up to a heart of stone
I screamed into a microphone
I burned the bridge, so I won't find my way home

Lay with me, I can't sleep
Misery loves company
When I'm bent, when I'm cracked
When I'm broken

[Pre-Chorus: Matt]
There's a halo in the distance
Salvation's barely out of reach

[Chorus: Matt]
Torn apart like the brokenhearted
Up in smoke with the fire we started
Misery loves company
I don't need anyone
Smash it up like there's no tomorrow
Leave me here with the fear and sorrow
Misery loves company
I don't need anyone

I don't need anyone
I don't need anyone
I don't need anyone
I don't need anyone
I don't need anyone

[Bridge: Mark]
Fifteen times a night, when the sun's gone down
In the dark awake, and you're not around
And the closest thought is the edge of oblivion
Fifteen times a day when you check your phone
And I won't be there and you're all alone
'Cause we always lived on the edge of oblivion
Left to find our way through a Hitchcock film
In an empty bed with an hour to kill
'Cause it's only fun on the edge of oblivion (oblivion)

[Chorus: Matt]
Torn apart like the brokenhearted
Up in smoke with the fire we started
Misery loves company
I don't need anyone
Smash it up like there's no tomorrow
Leave me here with the fear and sorrow
Misery loves company
I don't need anyone

I don't need anyone
I don't need anyone
I don't need anyone
I don't need anyone
I don't need anyone


---------------------------------------------------------------------------------------------------
                                         3. Good Old Days
---------------------------------------------------------------------------------------------------
Tuning: Standar

[Intro]
e|-----------------|-----------------|
B|-----------------|-----------------|
G|-6-6-6-6-6-6-6-6-|-6-6-6-6-6-6-6-6-|
D|-x-x-x-x-x-x-x-x-|-x-x-x-x-x-x-x-x-|
A|-4-4-4-4-4-4-4-4-|-4-4-4-4-4-4-4-4-|
E|-----------------|-----------------|
 


[Verse 1]
e|-----------|-----------------------------------------|-----------|
B|-----------|-----------------------------------------|-----------|
G|-6-6-6-6-6-|-----------------------------------------|-6-6-6-6-6-|
D|-6-6-6-6-6-|-6-6-6/8-8-8-8-8/6-6-6/8-8-8-8-8-8/6-6-6-|-6-6-6-6-6-|  (x2)
A|-4-4-4-4-4-|-6-6-6/8-8-8-8-8/6-6-6/8-8-8-8-8-8/6-6-6-|-4-4-4-4-4-|
E|-----------|-4-4-4/6-6-6-6-6/4-4-4/6-6-6-6-6-6/4-4-4-|-----------|
      PM                        PM                          PM



[Pre-Chorus]
e|---------------|-------------|---------------------|---------------|-------------|---------------------|
B|---------------|-------------|---------------------|---------------|-------------|---------------------|
G|---------------|-------------|---------------------|---------------|-------------|---------------------|
D|-6-6-6-6-6-6-6-|-8-8-8-8-8-8-|-4-4-4-4-4-4-4-4-4-4-|-6-6-6-6-6-6-6-|-8-8-8-8-8-8-|-6-6-6-6-6-6-6-6-6-6-|
A|-6-6-6-6-6-6-6-|-8-8-8-8-8-8-|-4-4-4-4-4-4-4-4-4-4-|-6-6-6-6-6-6-6-|-8-8-8-8-8-8-|-6-6-6-6-6-6-6-6-6-6-|
E|-4-4-4-4-4-4-4-|-6-6-6-6-6-6-|-2-2-2-2-2-2-2-2-2-2-|-4-4-4-4-4-4-4-|-6-6-6-6-6-6-|-4-4-4-4-4-4-4-4-4-4-|
        PM              PM                PM                PM              PM               PM          



[Chorus]
e|---------------|---------------|-----------------|-----------------|
B|---------------|---------------|-----------------|-----------------|
G|-6-6-6-6-6-6-6-|---------------|-----------------|-----------------|
A|-4-4-4-4-4-4-4-|-6-6-6-6-6-6-6-|-8-8-8-8-8-8-8-8-|-4-4-4-4-4-4-4-4-|  (x2)
A|-4-4-4-4-4-4-4-|-6-6-6-6-6-6-6-|-8-8-8-8-8-8-8-8-|-4-4-4-4-4-4-4-4-|
E|---------------|-4-4-4-4-4-4-4-|-6-6-6-6-6-6-6-6-|-2-2-2-2-2-2-2-2-|



[Verse 2]
e|-----------|-----------------------------------------|-----------|
B|-----------|-----------------------------------------|-----------|
G|-6-6-6-6-6-|-----------------------------------------|-6-6-6-6-6-|
D|-6-6-6-6-6-|-6-6-6/8-8-8-8-8/6-6-6/8-8-8-8-8-8/6-6-6-|-6-6-6-6-6-|  (x2)
A|-4-4-4-4-4-|-6-6-6/8-8-8-8-8/6-6-6/8-8-8-8-8-8/6-6-6-|-4-4-4-4-4-|
E|-----------|-4-4-4/6-6-6-6-6/4-4-4/6-6-6-6-6-6/4-4-4-|-----------|
      PM                        PM                          PM



[Pre-Chorus]
e|---------------|-------------|---------------------|---------------|-------------|---------------------|
B|---------------|-------------|---------------------|---------------|-------------|---------------------|
G|---------------|-------------|---------------------|---------------|-------------|---------------------|
D|-6-6-6-6-6-6-6-|-8-8-8-8-8-8-|-4-4-4-4-4-4-4-4-4-4-|-6-6-6-6-6-6-6-|-8-8-8-8-8-8-|-6-6-6-6-6-6-6-6-6-6-|
A|-6-6-6-6-6-6-6-|-8-8-8-8-8-8-|-4-4-4-4-4-4-4-4-4-4-|-6-6-6-6-6-6-6-|-8-8-8-8-8-8-|-6-6-6-6-6-6-6-6-6-6-|
E|-4-4-4-4-4-4-4-|-6-6-6-6-6-6-|-2-2-2-2-2-2-2-2-2-2-|-4-4-4-4-4-4-4-|-6-6-6-6-6-6-|-4-4-4-4-4-4-4-4-4-4-|
        PM              PM                PM                PM              PM               PM          



[Chorus]
e|---------------|---------------|-----------------|-----------------|
B|---------------|---------------|-----------------|-----------------|
G|-6-6-6-6-6-6-6-|---------------|-----------------|-----------------|
A|-4-4-4-4-4-4-4-|-6-6-6-6-6-6-6-|-8-8-8-8-8-8-8-8-|-4-4-4-4-4-4-4-4-|  (x2)
A|-4-4-4-4-4-4-4-|-6-6-6-6-6-6-6-|-8-8-8-8-8-8-8-8-|-4-4-4-4-4-4-4-4-|
E|---------------|-4-4-4-4-4-4-4-|-6-6-6-6-6-6-6-6-|-2-2-2-2-2-2-2-2-|



[Bridge]
e|-1--1--1--1--1--1--1--1--1--1--1--1--|-------------------|-1--1--1--1--|
B|--2--2--2--2--2--2--2--2--2--2--2--2-|-------------------|--2--2--2--2-|
G|-------------------------------------|-3--3--3--3--3--3--|-------------|
D|-------------------------------------|--1--1--1--1--1--1-|-------------|
A|-------------------------------------|-------------------|-------------|
E|-------------------------------------|-------------------|-------------|



[Outro]
e|---------------|---------------|-----------------|-----------------|
B|---------------|---------------|-----------------|-----------------|
G|-6-6-6-6-6-6-6-|---------------|-----------------|-----------------|
A|-4-4-4-4-4-4-4-|-6-6-6-6-6-6-6-|-8-8-8-8-8-8-8-8-|-4-4-4-4-4-4-4-4-| (x4)
A|-4-4-4-4-4-4-4-|-6-6-6-6-6-6-6-|-8-8-8-8-8-8-8-8-|-4-4-4-4-4-4-4-4-|
E|---------------|-4-4-4-4-4-4-4-|-6-6-6-6-6-6-6-6-|-2-2-2-2-2-2-2-2-|

e|-----|
B|-----|
G|--6--|
D|--6--|
A|--4--|
E|-----|



[Verse 1: Mark Hoppus]
Don't wanna hear the static on the T.V screen
Don't wanna live a life of cell phone memories
When did you go missing?
Where did I go wrong?
Sometimes I just don't know where I belong

[Chorus: Mark Hoppus]
Save yourself, we're always saying
We're not the same, we're two in a million
Oh, these are the good old days
These are the good old days
Go through hell, the battles we've bartered
We stood as one, the young and forgotten
Oh, these are the good old days
These are the good old days

[Verse 2: Mark Hoppus]
You're not the only one who grew up feeling scared
You're not the only broken heart gone unrepaired
Everyone's gone missing
Everyone's done wrong
Sometimes we both fly too close to the sun

[Chorus: Mark Hoppus]
Save yourself, we're always saying
We're not the same, we're two in a million
Oh, these are the good old days
These are the good old days
Go through hell, the battles we've bartered
We stood as one, the young and forgotten
Oh, these are the good old days
These are the good old days

[Bridge: Mark Hoppus]
You're giving up, we're getting out
We were young and we're not growing up
We're not growing up
You're giving up, we're getting out
We were young and we're not growing up
We're not growing up

[Chorus: Mark Hoppus]
Save yourself, we're always saying
We're not the same, we're two in a million
Oh, these are the good old days
These are the good old days
Go through hell, the battles we've bartered
We stood as one, the young and forgotten
Oh, these are the good old days
These are the good old days

These are the good old days
These are the good old days

These are the good old days
These are the good old days


---------------------------------------------------------------------------------------------------
                                     4. Don't Mean Anything
---------------------------------------------------------------------------------------------------
Tuning: Standard


[Intro]
e|---2------2------2------2---|---2------2-------2------2---|
B|-----3------3------3------3-|-----3------3-------3------3-|
G|----------------------------|-----------------------------|
D|----------------------------|-----------------------------| (x3)
A|-2------2------2------2-----|----------------0------0-----|
E|----------------------------|-3------3--------------------|



[Verse 1]
e|-------------------------------|-----------------|-----------------|
B|-------------------------------|-----------------|-----------------|
G|-4-4-4-4-4-4-4-4-4-4-4-4-4-4-4-|-----------------|-----------------|
D|-4-4-4-4-4-4-4-4-4-4-4-4-4-4-4-|-5-5-5-5-5-5-5-5-|-7-7-7-7-7-7-7-7-|
A|-2-2-2-2-2-2-2-2-2-2-2-2-2-2-2-|-5-5-5-5-5-5-5-5-|-7-7-7-7-7-7-7-7-|
E|-------------------------------|-3-3-3-3-3-3-3-3-|-5-5-5-5-5-5-5-5-|
              PM                          PM              PM
e|---------------------------------|-----|
B|---------------------------------|-----|
G|-4-4-4-4-4-4-4-4-4-4-4-4-4-4-4-4-|--5--|
D|-4-4-4-4-4-4-4-4-4-4-4-4-4-4-4-4-|--5--|
A|-2-2-2-2-2-2-2-2-2-2-2-2-2-2-2-2-|--5--|
E|---------------------------------|--3--|
                 PM



[Chorus]
e|-------------------------|-------------------------|-------------------------|-----------------|
B|-------------------------|-------------------------|-------------------------|-----------------|
G|-11-11-11/12-12-12/14-14-|-11-11-11/12-12-12/14-14-|-11-11-11/12-12-12/14-14-|-7-7-7-7-7-7-7-7-|
D|--x--x--x--x--x--x--x--x-|--x--x--x--x--x--x--x--x-|--x--x--x--x--x--x--x--x-|-x-x-x-x-x-x-x-x-| (x2)
A|--9--9--9/10-10-10/12-12-|--9--9--9/10-10-10/12-12-|--9--9--9/10-10-10/12-12-|-5-5-5-5-5-5-5-5-|
E|-------------------------|-------------------------|-------------------------|-----------------|

e|-----------------|-----------------|-----------------|-----------------|
B|-----------------|-----------------|-----------------|-----------------|
G|-4-4-4-4-4-4-4-4-|-----------------|-7-7-7-7-7-7-7-7-|-----------------|
D|-4-4-4-4-4-4-4-4-|-5-5-5-5-5-5-5-5-|-7-7-7-7-7-7-7-7-|-7-7-7-7-7-7-7-7-|
A|-2-2-2-2-2-2-2-2-|-5-5-5-5-5-5-5-5-|-5-5-5-5-5-5-5-5-|-7-7-7-7-7-7-7-7-|
E|-----------------|-3-3-3-3-3-3-3-3-|-----------------|-5-5-5-5-5-5-5-5-|

e|-------------------------|-------------------------|-------------------------|-----------------|
B|-------------------------|-------------------------|-------------------------|-----------------|
G|-11-11-11/12-12-12/14-14-|-11-11-11/12-12-12/14-14-|-11-11-11/12-12-12/14-14-|-7-7-7-7-7-7-7-7-|
D|--x--x--x--x--x--x--x--x-|--x--x--x--x--x--x--x--x-|--x--x--x--x--x--x--x--x-|-x-x-x-x-x-x-x-x-| 
A|--9--9--9/10-10-10/12-12-|--9--9--9/10-10-10/12-12-|--9--9--9/10-10-10/12-12-|-5-5-5-5-5-5-5-5-|
E|-------------------------|-------------------------|-------------------------|-----------------|



[Verse 2]
e|---2------2------2------2---|---2------2-------2------2---|
B|-----3------3------3------3-|-----3------3-------3------3-|
G|----------------------------|-----------------------------|
D|----------------------------|-----------------------------| (x2)
A|-2------2------2------2-----|----------------0------0-----|
E|----------------------------|-3------3--------------------|

e|-------------------------------|-----------------|-----------------|
B|-------------------------------|-----------------|-----------------|
G|-4-4-4-4-4-4-4-4-4-4-4-4-4-4-4-|-----------------|-----------------|
D|-4-4-4-4-4-4-4-4-4-4-4-4-4-4-4-|-5-5-5-5-5-5-5-5-|-7-7-7-7-7-7-7-7-|
A|-2-2-2-2-2-2-2-2-2-2-2-2-2-2-2-|-5-5-5-5-5-5-5-5-|-7-7-7-7-7-7-7-7-|
E|-------------------------------|-3-3-3-3-3-3-3-3-|-5-5-5-5-5-5-5-5-|
              PM                          PM              PM

e|-------------------------------|-----------------|-----------------|
B|-------------------------------|-----------------|-----------------|
G|-4-4-4-4-4-4-4-4-4-4-4-4-4-4-4-|-----------------|-----------------|
D|-4-4-4-4-4-4-4-4-4-4-4-4-4-4-4-|-5-5-5-5-5-5-5-5-|-7-7-7-7-7-7-7-7-|
A|-2-2-2-2-2-2-2-2-2-2-2-2-2-2-2-|-5-5-5-5-5-5-5-5-|-7-7-7-7-7-7-7-7-|
E|-------------------------------|-3-3-3-3-3-3-3-3-|-5-5-5-5-5-5-5-5-|
              PM                        



[Chorus]
e|-------------------------|-------------------------|-------------------------|-----------------|
B|-------------------------|-------------------------|-------------------------|-----------------|
G|-11-11-11/12-12-12/14-14-|-11-11-11/12-12-12/14-14-|-11-11-11/12-12-12/14-14-|-7-7-7-7-7-7-7-7-|
D|--x--x--x--x--x--x--x--x-|--x--x--x--x--x--x--x--x-|--x--x--x--x--x--x--x--x-|-x-x-x-x-x-x-x-x-| (x2)
A|--9--9--9/10-10-10/12-12-|--9--9--9/10-10-10/12-12-|--9--9--9/10-10-10/12-12-|-5-5-5-5-5-5-5-5-|
E|-------------------------|-------------------------|-------------------------|-----------------|

e|-----------------|-----------------|-----------------|-----------------|
B|-----------------|-----------------|-----------------|-----------------|
G|-4-4-4-4-4-4-4-4-|-----------------|-7-7-7-7-7-7-7-7-|-----------------|
D|-4-4-4-4-4-4-4-4-|-5-5-5-5-5-5-5-5-|-7-7-7-7-7-7-7-7-|-7-7-7-7-7-7-7-7-|
A|-2-2-2-2-2-2-2-2-|-5-5-5-5-5-5-5-5-|-5-5-5-5-5-5-5-5-|-7-7-7-7-7-7-7-7-|
E|-----------------|-3-3-3-3-3-3-3-3-|-----------------|-5-5-5-5-5-5-5-5-|

e|-------------------------|-------------------------|-------------------------|-----------------|
B|-------------------------|-------------------------|-------------------------|-----------------|
G|-11-11-11/12-12-12/14-14-|-11-11-11/12-12-12/14-14-|-11-11-11/12-12-12/14-14-|-7-7-7-7-7-7-7-7-|
D|--x--x--x--x--x--x--x--x-|--x--x--x--x--x--x--x--x-|--x--x--x--x--x--x--x--x-|-x-x-x-x-x-x-x-x-|
A|--9--9--9/10-10-10/12-12-|--9--9--9/10-10-10/12-12-|--9--9--9/10-10-10/12-12-|-5-5-5-5-5-5-5-5-|
E|-------------------------|-------------------------|-------------------------|-----------------|



[Bridge]
Guitar 1
e|-------|-------|-------|-------|-------|-------|-------|-------|
B|---7---|---7---|---7---|---7---|---7---|---7---|---7---|---7---|
G|-----7-|-----7-|-----7-|-----7-|-----7-|-----7-|-----7-|-----7-|
D|-------|-------|-------|-5-----|-------|-------|-------|-5-----| (x4)
A|-5-----|-------|-------|-------|-5-----|-------|-------|-------|
E|-------|-5-----|-7-----|-------|-------|-5-----|-7-----|-------|

Guitar 2
e|-----------------|-----------------|-----------------|-------------------------|
B|-----------------|-----------------|-----------------|-------------------------|
G|-7-7-7-7-7-7-7-7-|-----------------|-----------------|-------------------------|
D|-7-7-7-7-7-7-7-7-|-7-7-7-7-7-7-7-7-|-9-9-9-9-9-9-9-9-|-12-12-12-12-12-12-12-12-|
A|-5-5-5-5-5-5-5-5-|-7-7-7-7-7-7-7-7-|-9-9-9-9-9-9-9-9-|-12-12-12-12-12-12-12-12-|
E|-----------------|-5-5-5-5-5-5-5-5-|-7-7-7-7-7-7-7-7-|-10-10-10-10-10-10-10-10-|
         PM                PM                 PM                    PM
e|-----------------|-----------------|-----------------|-------------------------|
B|-----------------|-----------------|-----------------|-------------------------|
G|-7-7-7-7-7-7-7-7-|-----------------|-----------------|-------------------------|
D|-7-7-7-7-7-7-7-7-|-7-7-7-7-7-7-7-7-|-9-9-9-9-9-9-9-9-|-12-12-12-12-12-12-12-12-|
A|-5-5-5-5-5-5-5-5-|-7-7-7-7-7-7-7-7-|-9-9-9-9-9-9-9-9-|-12-12-12-12-12-12-12-12-|
E|-----------------|-5-5-5-5-5-5-5-5-|-7-7-7-7-7-7-7-7-|-10-10-10-10-10-10-10-10-|
         PM                PM                 PM                    



[Chorus]
e|-------------------------|-------------------------|-------------------------|-----------------|
B|-------------------------|-------------------------|-------------------------|-----------------|
G|-11-11-11/12-12-12/14-14-|-11-11-11/12-12-12/14-14-|-11-11-11/12-12-12/14-14-|-7-7-7-7-7-7-7-7-|
D|--x--x--x--x--x--x--x--x-|--x--x--x--x--x--x--x--x-|--x--x--x--x--x--x--x--x-|-x-x-x-x-x-x-x-x-|
A|--9--9--9/10-10-10/12-12-|--9--9--9/10-10-10/12-12-|--9--9--9/10-10-10/12-12-|-5-5-5-5-5-5-5-5-|
E|-------------------------|-------------------------|-------------------------|-----------------|

e|-----------------|-----------------|-----------------|-----------------|
B|-----------------|-----------------|-----------------|-----------------|
G|-4-4-4-4-4-4-4-4-|-----------------|-7-7-7-7-7-7-7-7-|-----------------|
D|-4-4-4-4-4-4-4-4-|-5-5-5-5-5-5-5-5-|-7-7-7-7-7-7-7-7-|-7-7-7-7-7-7-7-7-|
A|-2-2-2-2-2-2-2-2-|-5-5-5-5-5-5-5-5-|-5-5-5-5-5-5-5-5-|-7-7-7-7-7-7-7-7-|
E|-----------------|-3-3-3-3-3-3-3-3-|-----------------|-5-5-5-5-5-5-5-5-|

e|-------------------------|-------------------------|-------------------------|-----------------|
B|-------------------------|-------------------------|-------------------------|-----------------|
G|-11-11-11/12-12-12/14-14-|-11-11-11/12-12-12/14-14-|-11-11-11/12-12-12/14-14-|-7-7-7-7-7-7-7-7-|
D|--x--x--x--x--x--x--x--x-|--x--x--x--x--x--x--x--x-|--x--x--x--x--x--x--x--x-|-x-x-x-x-x-x-x-x-|
A|--9--9--9/10-10-10/12-12-|--9--9--9/10-10-10/12-12-|--9--9--9/10-10-10/12-12-|-5-5-5-5-5-5-5-5-|
E|-------------------------|-------------------------|-------------------------|-----------------|



[Outro]
e|-14----14----|-12----12----|-15----15----|-12----12-15-|
B|----15----15-|----15----15-|----15----15-|----15-------|
G|-------------|-------------|-------------|-------------|
D|-------------|-------------|-------------|-------------|
A|-------------|-------------|-------------|-------------|
E|-------------|-------------|-------------|-------------|

e|-14----14----|-12----12----|-15----15----|-12----12-15-|--14-|
B|----15----15-|----15----15-|----15----15-|----15-------|--15--|
G|-------------|-------------|-------------|-------------|--12--|
D|-------------|-------------|-------------|-------------|------|
A|-------------|-------------|-------------|-------------|------|
E|-------------|-------------|-------------|-------------|------|



[Verse 1: Mark Hoppus]
Dearest mom, I'm always here no matter how far gone
I'm alright without you
Late at night, a million thoughts are caught up in my tree
You're alright without me

[Chorus: Matt Skiba (Mark Hoppus)]
It don't mean
It don't mean
It don't mean anything at all [x2]
(And it's a long way back to the middle of the road
Finding our way back home)
It don't mean
It don't mean
It don't mean anything at all

[Verse 2: Matt Skiba]
Dear old dad, I'm the one and only son you never had
I'll be fine without you
Late at night, I hear you grab your coat and your car keys
You'll be fine without me

[Chorus]
It don't mean
It don't mean
It don't mean anything at all [x2]
(And it's a long way back to the middle of the road
Finding our way back home)
It don't mean
It don't mean
It don't mean anything at all

[Bridge: Mark Hoppus]
And we all fall to the surface sometimes
And we all fall back where we belong [x2]

[Chorus]
It don't mean
It don't mean
It don't mean anything at all [x2]
(And it's a long way back to the middle of the road
Finding our way back home)
It don't mean
It don't mean
It don't mean anything at all


---------------------------------------------------------------------------------------------------
                                       5. Hey I'm Sorry
---------------------------------------------------------------------------------------------------
Tuning: Standard


[Verse 1]
e|---------------|---------------|---------------|---------------|
B|---------------|---------------|---------------|---------------|
G|-4-4-4---4-4-4-|---------------|-4-4-4---4-4-4-|---------------|
D|-4-4-4---4-4-4-|-5-5-5---7-7-7-|-4-4-4---4-4-4-|-5-5-5---7-7-7-| (x2)
A|-2-2-2---2-2-2-|-5-5-5---7-7-7-|-2-2-2---2-2-2-|-5-5-5---7-7-7-|
E|---------------|-3-3-3---5-5-5-|---------------|-3-3-3---5-5-5-|



[Pre-Chorus]
e|---------------|---------------|---------------|-----------------|-----------------|
B|---------------|-3-3-3---3-3-3-|---------------|-----------------|-----------------|
G|-4-4-4---4-4-4-|-2-2-2---2-2-2-|-4-4-4---4-4-4-|-----------------|-----------------|
D|-4-4-4---4-4-4-|-0-0-0---0-0-0-|-4-4-4---4-4-4-|-7-7-7-7-7-7-7-7-|-7-7-7-7-7-7-7-7-|
A|-2-2-2---2-2-2-|---------------|-2-2-2---2-2-2-|-7-7-7-7-7-7-7-7-|-7-7-7-7-7-7-7-7-|
E|---------------|---------------|---------------|-5-5-5-5-5-5-5-5-|-5-5-5-5-5-5-5-5-|            
                                            PM


[Chorus]
e|-------------------------|-----------------|-------------------------|-----------------|
B|-------------------------|-----------------|-------------------------|-----------------|
G|-11-11-11-11-11-11-11-11-|-7-7-7-7-7-7-7-7-|-11-11-11-11-11-11-11-11-|-9-9-9-9-9-9-9-9-|
D|--x--x--x--x--x--x--x--x-|-x-x-x-x-x-x-x-x-|--x--x--x--x--x--x--x--x-|-x-x-x-x-x-x-x-x-| (x2)
A|--9--9--9--9--9--9--9--9-|-5-5-5-5-5-5-5-5-|--9--9--9--9--9--9--9--9-|-7-7-7-7-7-7-7-7-|
E|-------------------------|-----------------|-------------------------|-----------------|

e|------------------|---------------------------|----------------------------|
B|------------------|---------------------------|----------------------------|
G|-7-7-7-7--9-9-9-9-|-11-11-11-11---12-12-12-12-|-15-15-15-15-15-15-15-15-15-|
D|-x-x-x-x--x-x-x-x-|--x--x--x--x----x--x--x--x-|--x--x--x--x--x--x--x--x--x-|
A|-5-5-5-5--7-7-7-7-|--9--9--9--9---10-10-10-10-|-13-13-13-13-13-13-13-13-13-|
E|------------------|---------------------------|----------------------------|



[Verse 2]
e|---------------|---------------|---------------|---------------|
B|---------------|---------------|---------------|---------------|
G|-4-4-4---4-4-4-|---------------|-4-4-4---4-4-4-|---------------|
D|-4-4-4---4-4-4-|-5-5-5---7-7-7-|-4-4-4---4-4-4-|-5-5-5---7-7-7-| (x2)
A|-2-2-2---2-2-2-|-5-5-5---7-7-7-|-2-2-2---2-2-2-|-5-5-5---7-7-7-|
E|---------------|-3-3-3---5-5-5-|---------------|-3-3-3---5-5-5-|



[Pre-Chorus]
e|---------------|---------------|---------------|-----------------|-----------------|
B|---------------|-3-3-3---3-3-3-|---------------|-----------------|-----------------|
G|-4-4-4---4-4-4-|-2-2-2---2-2-2-|-4-4-4---4-4-4-|-----------------|-----------------|
D|-4-4-4---4-4-4-|-0-0-0---0-0-0-|-4-4-4---4-4-4-|-7-7-7-7-7-7-7-7-|-7-7-7-7-7-7-7-7-|
A|-2-2-2---2-2-2-|---------------|-2-2-2---2-2-2-|-7-7-7-7-7-7-7-7-|-7-7-7-7-7-7-7-7-|
E|---------------|---------------|---------------|-5-5-5-5-5-5-5-5-|-5-5-5-5-5-5-5-5-|
                                                         PM


[Chorus]
e|-------------------------|-----------------|-------------------------|-----------------|
B|-------------------------|-----------------|-------------------------|-----------------|
G|-11-11-11-11-11-11-11-11-|-7-7-7-7-7-7-7-7-|-11-11-11-11-11-11-11-11-|-9-9-9-9-9-9-9-9-|
D|--x--x--x--x--x--x--x--x-|-x-x-x-x-x-x-x-x-|--x--x--x--x--x--x--x--x-|-x-x-x-x-x-x-x-x-| (x2)
A|--9--9--9--9--9--9--9--9-|-5-5-5-5-5-5-5-5-|--9--9--9--9--9--9--9--9-|-7-7-7-7-7-7-7-7-|
E|-------------------------|-----------------|-------------------------|-----------------|

e|------------------|---------------------------|----------------------------|
B|------------------|---------------------------|----------------------------|
G|-7-7-7-7--9-9-9-9-|-11-11-11-11---12-12-12-12-|-15-15-15-15-15-15-15-15-15-|
D|-x-x-x-x--x-x-x-x-|--x--x--x--x----x--x--x--x-|--x--x--x--x--x--x--x--x--x-|
A|-5-5-5-5--7-7-7-7-|--9--9--9--9---10-10-10-10-|-13-13-13-13-13-13-13-13-13-|
E|------------------|---------------------------|----------------------------|



[Instumental]
e|-----------------|-----------------|-----------------|---------------|
B|-7---7---7---7---|-5---5---5---5---|-8---8---8---8---|-8---8---8---5-|
G|---7---7---7---7-|---7---7---7---7-|---7---7---7---7-|---7---7---7---|
D|-----------------|-----------------|-----------------|---------------| (x2)
A|-----------------|-----------------|-----------------|---------------|
E|-----------------|-----------------|-----------------|---------------|



[Bridge]
e|-----------------|-----------------|-----------------|-----------------|
B|-----------------|-----------------|-----------------|-----------------|
G|-7-7-7-7-7-7-7-7-|-----------------|-----------------|-----------------|
D|-7-7-7-7-7-7-7-7-|-7-7-7-7-7-7-7-7-|-5-5-5-5-5-5-5-5-|-5-5-5-5-5-5-5-5-|
A|-5-5-5-5-5-5-5-5-|-7-7-7-7-7-7-7-7-|-5-5-5-5-5-5-5-5-|-5-5-5-5-5-5-5-5-|
E|-----------------|-5-5-5-5-5-5-5-5-|-3-3-3-3-3-3-3-3-|-3-3-3-3-3-3-3-3-|
         PM                 PM                PM               PM  

e|-----------------|-----------------|-----------------|-----------------|
B|-----------------|-----------------|-----------------|-----------------|
G|-7-7-7-7-7-7-7-7-|-----------------|-----------------|-----------------|
D|-7-7-7-7-7-7-7-7-|-7-7-7-7-7-7-7-7-|-5-5-5-5-5-5-5-5-|-5-5-5-5-5-5-5-5-|
A|-5-5-5-5-5-5-5-5-|-7-7-7-7-7-7-7-7-|-5-5-5-5-5-5-5-5-|-5-5-5-5-5-5-5-5-|
E|-----------------|-5-5-5-5-5-5-5-5-|-3-3-3-3-3-3-3-3-|-3-3-3-3-3-3-3-3-|
         PM                 PM                PM               



[Chorus]
e|--------------------|---------------|--------------------|---|---------|-------|
B|--------------------|---------------|--------------------|---|---------|-------|
G|-11---11---11-11-11-|-7---7---7-7-7-|-11---11---11-11-11-|-9-|-9-9-9-9-|-9-9-9-|
D|--x----x----x--x--x-|-x---x---x-x-x-|--x----x----x--x--x-|-x-|-9-9-9-9-|-x-x-x-|
A|--9----9----9--9--9-|-5---5---5-5-5-|--9----9----9--9--9-|-7-|-7-7-7-7-|-7-7-7-|
E|--------------------|---------------|--------------------|---|---------|-------|
                                                                   PM
e|-------------------------|-----------------|-------------------------|-----------------|
B|-------------------------|-----------------|-------------------------|-----------------|
G|-11-11-11-11-11-11-11-11-|-7-7-7-7-7-7-7-7-|-11-11-11-11-11-11-11-11-|-9-9-9-9-9-9-9-9-|
D|--x--x--x--x--x--x--x--x-|-x-x-x-x-x-x-x-x-|--x--x--x--x--x--x--x--x-|-x-x-x-x-x-x-x-x-| (x2)
A|--9--9--9--9--9--9--9--9-|-5-5-5-5-5-5-5-5-|--9--9--9--9--9--9--9--9-|-7-7-7-7-7-7-7-7-|
E|-------------------------|-----------------|-------------------------|-----------------|

e|------------------|---------------------------|----------------------------|
B|------------------|---------------------------|----------------------------|
G|-7-7-7-7--9-9-9-9-|-11-11-11-11---12-12-12-12-|-15-15-15-15-15-15-15-15-15-|
D|-x-x-x-x--x-x-x-x-|--x--x--x--x----x--x--x--x-|--x--x--x--x--x--x--x--x--x-|
A|-5-5-5-5--7-7-7-7-|--9--9--9--9---10-10-10-10-|-13-13-13-13-13-13-13-13-13-|
E|------------------|---------------------------|----------------------------|



[Outro]
e|---------|---------|------------------------------|---------|---------|
B|-------7-|-------7-|------------------------------|-------7-|-------7-|
G|---7-----|---6-----|---0---4--4-4-4-4-4-4-4-------|---7-----|---6-----|
D|-0---0---|-0---0---|-5---5------------------7-7-7-|-0---0---|-0---0---|
A|---------|---------|------------------------------|---------|---------|
E|---------|---------|------------------------------|---------|---------|



[Verse 1]
Hold me down deep under water
Wave goodbye to all your daughters
Break yourself but why even bother?
Fathers pray for princes instead
Have your fill of disappointment
Two more years of unemployment
All your fears come to life and leave you boarded up abandoned and spent

[Pre-Chorus]
Everything you've ever hoped for
Waiting there outside your front door
Bleeding to death
Everything you've never wanted
Here to seem just like that haunted place
They say for everyones dying breath

[Chorus]
Hey I'm sorry I lost the melody
(Whoa-ah-oh)
Hey I'm sorry I lost your memory
(Whoa-ah-oh)
When we fall asleep I sleep all by myself
At the end of the day

[Verse 2]
Are you alone with all your thoughts
Your suitcase full of books you bought
The war we fought and all the battles lost
In sought in search exceeding expense

[Pre-Chorus]
Everything you've ever hoped for
Waiting there outside your front door
Bleeding to death
Everything you've never wanted
Here to seem just like that haunted place
They say for everyones dying breath

[Chorus]
Hey I'm sorry I lost the melody
(Whoa-ah-oh)
Hey I'm sorry I lost your memory
(Whoa-ah-oh)
When we fall asleep I sleep all by myself
At the end of the day

[Bridge]
(Whoa-ah-oh)
(Whoa-ah-oh)

[Chorus]
Hey I'm sorry I lost the melody
(Whoa-ah-oh)
Hey I'm sorry I lost your memory
(Whoa-ah-oh)

[Outro]
Hey I'm sorry I lost the melody
Hey I'm sorry I I lost your memory
Hey I'm sorry mistakes and tragedy
Hey I'm sorry give back what's left of us
When I fall asleep I sleep all by myself
At the end of the day
(Whoa-ah-oh)
At the end of the day
(Whoa-ah-oh)


---------------------------------------------------------------------------------------------------
                                  6. Last Train Home
---------------------------------------------------------------------------------------------------
Tuning: Standard


[Intro]
e|------------------|-----------------------|
B|---7-8-7---10p8-7-|------7-8-7---10p8-7---|
G|------------------|---------------------7-|
D|-9----------------|-----------------------| (x2)
A|------------------|-9-10------------------|
E|------------------|-----------------------|



[Verse]
e|------------------|-----------------------|
B|---7-8-7---10p8-7-|------7-8-7---10p8-7---|
G|------------------|---------------------7-|
D|-9----------------|-----------------------| (x6)
A|------------------|-9-10------------------|
E|------------------|-----------------------|



[Chorus]
e|-----------------|-----------------|-----------------|-----------------|
B|-----------------|-----------------|-----------------|-----------------|
G|-4-4-4-4-4-4-4-4-|-----------------|-7-7-7-7-7-7-7-7-|-----------------|
D|-4-4-4-4-4-4-4-4-|-5-5-5-5-5-5-5-5-|-7-7-7-7-7-7-7-7-|-7-7-7-7-7-7-7-7-| (x3)
A|-2-2-2-2-2-2-2-2-|-5-5-5-5-5-5-5-5-|-5-5-5-5-5-5-5-5-|-7-7-7-7-7-7-7-7-|
E|-----------------|-3-3-3-3-3-3-3-3-|-----------------|-5-5-5-5-5-5-5-5-|
         PM                 PM                PM                 PM
e|-----------------|-----------------|
B|-----------------|-----------------|
G|-4-4-4-4-4-4-4-4-|-----------------|
D|-4-4-4-4-4-4-4-4-|-5-5-5-5-5-5-5-5-|
A|-2-2-2-2-2-2-2-2-|-5-5-5-5-5-5-5-5-|
E|-----------------|-3-3-3-3-3-3-3-3-|



[Verse 2]
e|------------------|-----------------------|
B|---7-8-7---10p8-7-|------7-8-7---10p8-7---|
G|------------------|---------------------7-|
D|-9----------------|-----------------------| (x8)
A|------------------|-9-10------------------|
E|------------------|-----------------------|



[Chorus]
e|-----------------|-----------------|-----------------|-----------------|
B|-----------------|-----------------|-----------------|-----------------|
G|-7-7-7-7-7-7-7-7-|-----------------|-4-4-4-4-4-4-4-4-|-----------------|
D|-7-7-7-7-7-7-7-7-|-7-7-7-7-7-7-7-7-|-4-4-4-4-4-4-4-4-|-5-5-5-5-5-5-5-5-|
A|-5-5-5-5-5-5-5-5-|-7-7-7-7-7-7-7-7-|-2-2-2-2-2-2-2-2-|-5-5-5-5-5-5-5-5-|
E|-----------------|-5-5-5-5-5-5-5-5-|-----------------|-3-3-3-3-3-3-3-3-|
         PM                 PM                PM                 PM
e|-----------------|-----------------|-----------------|-----------------|
B|-----------------|-----------------|-----------------|-----------------|
G|-7-7-7-7-7-7-7-7-|-----------------|-4-4-4-4-4-4-4-4-|-----------------|
D|-7-7-7-7-7-7-7-7-|-7-7-7-7-7-7-7-7-|-4-4-4-4-4-4-4-4-|-5-5-5-5-5-5-5-5-|
A|-5-5-5-5-5-5-5-5-|-7-7-7-7-7-7-7-7-|-2-2-2-2-2-2-2-2-|-5-5-5-5-5-5-5-5-|
E|-----------------|-5-5-5-5-5-5-5-5-|-----------------|-3-3-3-3-3-3-3-3-|
         PM                 PM     
                            
e|-------------------------|-----------------|-------------------------|-------------------------|
B|-------------------------|-----------------|-------------------------|-------------------------|
G|-11-11-11-11-11-11-11-11-|-9-9-9-9-9-9-9-9-|-11-11-11-11-11-11--9/11-|-12-12-12-12-12-12-12-12-|
D|--x--x--x--x--x--x--x--x-|-x-x-x-x-x-x-x-x-|--x--x--x--x--x--x--x/-x-|--x--x--x--x--x--x--x--x-|
A|--9--9--9--9--9--9--9--9-|-7-7-7-7-7-7-7-7-|--9--9--9--9--9--9--7/-9-|-10-10-10-10-10-10-10-10-|
E|-------------------------|-----------------|-------------------------|-------------------------|

e|-------------------------|-----------------|-------------------------|---------------------------|
B|-------------------------|-----------------|-------------------------|---------------------------|
G|-11-11-11-11-11-11-11-11-|-9-9-9-9-9-9-9-9-|-11-11-11-11-11-11--9/11-|-12-12-12-12-12/14--12--11-|
D|--x--x--x--x--x--x--x--x-|-x-x-x-x-x-x-x-x-|--x--x--x--x--x--x--x/-x-|--x--x--x--x--x/-x--x----x-|
A|--9--9--9--9--9--9--9--9-|-7-7-7-7-7-7-7-7-|--9--9--9--9--9--9--7/-9-|-10-10-10-10-10/12--10---9-|
E|-------------------------|-----------------|-------------------------|---------------------------|



[Instrumental]
e|-----------------|----------------|-----3---3---|-----3---3---|
B|-------8----8----|------8----8----|---7---7---7-|---7---7---7-|
G|----11---11---11-|---11---11---11-|-0-----------|-0-----------|
D|-12--------------|-9--------------|-------------|-------------|
A|-----------------|----------------|-------------|-------------|
E|-----------------|----------------|-------------|-------------|

e|-----------------|----------------|-----3---3---|-----3---3---|
B|-------8----8----|------8----8----|---7---7---7-|---7---7---7-|
G|----11---11---11-|---11---11---11-|-0-----------|-------------|
D|-12--------------|-9--------------|-------------|-------------|
A|-----------------|----------------|-------------|-0-----------|
E|-----------------|----------------|-------------|-------------|



[Bridge]
e|-------------|-------------|-------------|-------------|
B|-------------|-------------|-------------|-------------|
G|-7-7-7-7-7-7-|-------------|-------------|-------------|
D|-7-7-7-7-7-7-|-4-4-4-4-4-4-|-7-7-7-7-7-7-|-7-7-7-7-7-7-|
A|-5-5-5-5-5-5-|-4-4-4-4-4-4-|-7-7-7-7-7-7-|-7-7-7-7-7-7-|
E|-------------|-2-2-2-2-2-2-|-5-5-5-5-5-5-|-5-5-5-5-5-5-|
       PM             PM            PM           PM

e|-------------|-------------|-------------|-------------|
B|-------------|-------------|-------------|-------------|
G|-7-7-7-7-7-7-|-------------|-------------|-------------|
D|-7-7-7-7-7-7-|-4-4-4-4-4-4-|-7-7-7-7-7-7-|-2-2-2-2-2-2-|
A|-5-5-5-5-5-5-|-4-4-4-4-4-4-|-7-7-7-7-7-7-|-2-2-2-2-2-2-|
E|-------------|-2-2-2-2-2-2-|-5-5-5-5-5-5-|-0-0-0-0-0-0-|
       PM             PM            PM           PM

e|-------------|-------------|-------------|---------------|
B|-------------|-------------|-------------|--------------|
G|-9-9-9-9-9-9-|-6-6-6-6-6-6-|-7-7-7-7-7-7-|-7-7--4/6--7-7-|
D|-x-x-x-x-x-x-|-x-x-x-x-x-x-|-x-x-x-x-x-x-|-x-x--x/x--x-x-|
A|-7-7-7-7-7-7-|-4-4-4-4-4-4-|-5-5-5-5-5-5-|-5-5--2/4--5-5-|
E|-------------|-------------|-------------|---------------|

e|-------------|-------------|-------------|-------------|
B|-------------|-------------|-------------|-------------|
G|-9-9-9-9-9-9-|-6-6-6-6-6-6-|-7-7-7-7-7-7-|-7-7-7-7-7-7-|
D|-x-x-x-x-x-x-|-x-x-x-x-x-x-|-x-x-x-x-x-x-|-x-x-x-x-x-x-|
A|-7-7-7-7-7-7-|-4-4-4-4-4-4-|-5-5-5-5-5-5-|-5-5-5-5-5-5-|
E|-------------|-------------|-------------|-------------|



[Outro]
e|---------------------------|---------------------------|---------------------------|
B|---------------------------|---------------------------|---------------------------|
G|-9-9-9--9-9--9-9-9-9-9-9-9-|-6-6-6--6-6--6-6-6-6-6-6-6-|-7-7-7--7-7--7-7-7-7-7-7-7-|
D|-x-x-x--x-x--x-x-x-x-x-x-x-|-x-x-x--x-x--x-x-x-x-x-x-x-|-x-x-x--x-x--x-x-x-x-x-x-x-|
A|-7-7-7--7-7--7-7-7-7-7-7-7-|-4-4-4--4-4--4-4-4-4-4-4-4-|-5-5-5--5-5--5-5-5-5-5-5-5-|
E|---------------------------|---------------------------|---------------------------|

e|----------------------|----------------------|----------------------|-------------------------|
B|----------------------|----------------------|----------------------|-------------------------|
G|-11-11-11--9-9-9--7-7-|-11-11-11--9-9-9--7-7-|-11-11-11--9-9-9--7-7-|-12-12-12--11-11-11--7-7-|
D|--x--x--x--x-x-x--x-x-|--x--x--x--x-x-x--x-x-|--x--x--x--x-x-x--x-x-|--x--x--x---x--x--x--x-x-| (x3)
A|--9--9--9--7-7-7--5-5-|--9--9--9--7-7-7--5-5-|--9--9--9--7-7-7--5-5-|-10-10-10---9--9--9--5-5-|
E|----------------------|----------------------|----------------------|-------------------------|

e|------------------|-----------------------|
B|---7-8-7---10p8-7-|------7-8-7---10p8-7---|
G|------------------|---------------------7-|
D|-9----------------|-----------------------| (x2)
A|------------------|-9-10------------------|
E|------------------|-----------------------|



[Verse 1: Matt Skiba]
Late at night on mercy street
The summer air is way too sweet
The way I feel inside is worse than poison

Washed up standing on a beach
Something inside is incomplete
I numb the pain for one more night of mourning

This is the one last time
I promise one last time

[Chorus: Mark Hoppus (Matt Skiba)]
(I'll take the last train home) (The last train home)
(I'll take the last train home) (The last train home)
(I'll take the last train home)
The only time I feel alive is when I find something I would die for
(The last train home)
(I'll take the last train home)
The only time I feel alive is when I find something I would die for
(The last train home)

[Verse 2: Mark Hoppus]
The tidal wave and aftermath
I'm seasick from the years we've passed
Adrift at sea with no one left to rescue

Tonic and a fifth of gin
She said goodbye and left again
These empty rooms are deafening without you

This is one last time
I promise one last time

[Chorus: Mark Hoppus (Matt Skiba)]
(I'll take the last train home) (The last train home)
(I'll take the last train home) (The last train home)
(I'll take the last train home)
The only time I feel alive is when I find something I would die for
(The last train home)
(I'll take the last train home)
The only time I feel alive is when I find something I would die for
(The last train home)

[Bridge: Mark Hoppus and Matt Skiba]
Life's so strange
Time won't change
The world slips by, unafraid
And she never gave much anyway
Life's so strange

[Outro: Mark Hoppus (Matt Skiba)]
(I'll take the last train home) (The last train home)
(I'll take the last train home) (The last train home)
(I'll take the last train home) (The last train home)
(I'll take the last train home)
The only time I feel alive is when I find something I would die for
(The last train home)
(I'll take the last train home)
The only time I feel alive is when I find something I would die for
(The last train home)


---------------------------------------------------------------------------------------------------
                                        7. Wildfire
---------------------------------------------------------------------------------------------------
Tuning: Standard


[Intro]

e|---------------|---------------|---------------|---------------|
B|---------------|---------------|---------------|---------------|
G|---------------|---------------|---------------|---------------|
D|-----2------2--|-----2------2--|-----2------2--|-----2------2--|
A|-0-0----0-0----|-0-0----0-0----|---------------|---------------|
E|---------------|---------------|-0-0----0-0----|-0-0----0-0----|

e|---------------|---------------|-10p9----12p9----10p9-|----12p9----10p9-10p9-|
B|---------------|---------------|------10------10------|-10------10-----------|
G|---------------|---------------|----------------------|----------------------|
D|-----4------4--|-----4------4--|----------------------|----------------------|
A|-2-2----2-2----|-2-2----2-2----|----------------------|----------------------|
E|---------------|---------------|----------------------|----------------------|


e|--9--9--9-10-10-10--9--9-|-12-12-12-10-10-10--9--9-|
B|-10-10-10-10-10-10-10-10-|-10-10-10-10-10-10-10-10-|
G|-------------------------|-------------------------|
D|-------------------------|-------------------------|
A|-------------------------|-------------------------|
E|-------------------------|-------------------------|

e|--9--9--9-10-10-10--9--9-|--0--0--0--0--0--0--0--0-|
B|-10-10-10-10-10-10-10-10-|-10-10-10-10-10-10-10-10-|
G|-------------------------|--9--9--9--9--9--9--9--9-|
D|-------------------------|-------------------------|
A|-------------------------|-------------------------|
E|-------------------------|-------------------------|

e|--9--9--9-10-10-10--9--9-|-12-12-12-10-10-10--9--9-|
B|-10-10-10-10-10-10-10-10-|-10-10-10-10-10-10-10-10-|
G|-------------------------|-------------------------|
D|-------------------------|-------------------------|
A|-------------------------|-------------------------|
E|-------------------------|-------------------------|

e|-10p9----12p9----10p9-|----12p9----10p9-10p9-|
B|------10------10------|-10------10-----------|
G|----------------------|----------------------|
D|----------------------|----------------------|
A|----------------------|----------------------|
E|----------------------|----------------------|



[Verse]
Guitar 1
e|----------------|----------------|----------------|----------------|
B|----------------|----------------|----------------|----------------|
G|----------------|----------------|----------------|----------------|
D|----------------|----------------|----------------|----------------|
A|--7-7-7-7-7-7-7-|--7-7-7-7-7-7-7-|--7-7-7-7-7-7-7-|--7-7-7-7-7-7-7-|
E|--5-5-5-5-5-5-5-|--5-5-5-5-5-5-5-|--5-5-5-5-5-5-5-|--5-5-5-5-5-5-5-|

e|-----------------|-----------------|-----------------|-----------------|
B|-----------------|-----------------|-----------------|-----------------|
G|-----------------|-----------------|-7-7-7-7-7-7-7-7-|-7-7-7-7-7-7-7-7-|
D|-4-4-4-4-4-4-4-4-|-2-2-2-2-2-2-2-2-|-7-7-7-7-7-7-7-7-|-6-6-6-6-6-6-6-6-|
A|-4-4-4-4-4-4-4-4-|-2-2-2-2-2-2-2-2-|-5-5-5-5-5-5-5-5-|-5-5-5-5-5-5-5-5-|
E|-2-2-2-2-2-2-2-2-|-0-0-0-0-0-0-0-0-|-----------------|-----------------|


Guitar 2
e|-9-0-0-5-0-0-9-0-|-0-5-0-0-7-0-7-0-|-9-0-0-5-0-0-9-0-|-0-5-0-0-7h9p7-0-|
B|-----------------|-----------------|-----------------|-----------------|
G|-----------------|-----------------|-----------------|-----------------|
D|-----------------|-----------------|-----------------|-----------------|
A|-----------------|-----------------|-----------------|-----------------|
E|-----------------|-----------------|-----------------|-----------------|

Guitar 1
e|-----------------|-----------------|-----------------|-----------------|
B|-----------------|-----------------|-----------------|-----------------|
G|-----------------|-----------------|-7-7-7-7-7-7-7-7-|-7-7-7-7-7-7-7-7-|
D|-4-4-4-4-4-4-4-4-|-2-2-2-2-2-2-2-2-|-7-7-7-7-7-7-7-7-|-6-6-6-6-6-6-6-6-|
A|-4-4-4-4-4-4-4-4-|-2-2-2-2-2-2-2-2-|-5-5-5-5-5-5-5-5-|-5-5-5-5-5-5-5-5-|
E|-2-2-2-2-2-2-2-2-|-0-0-0-0-0-0-0-0-|-----------------|-----------------|



[Pre-Chorus]

e|---------------|---------------|---------------|---------------|
B|---------------|---------------|---------------|---------------|
G|---------------|---------------|---------------|---------------|
D|-----2------2--|-----2------2--|-----2------2--|-----2------2--|
A|-0-0----0-0----|-0-0----0-0----|---------------|---------------|
E|---------------|---------------|-0-0----0-0----|-0-0----0-0----|

e|---------------|---------------|---------------|---------------|
B|---------------|---------------|---------------|---------------|
G|---------------|---------------|---------------|---------------|
D|-----4------4--|-----4------4--|-----7------7--|-----6------6--|
A|-2-2----2-2----|-2-2----2-2----|-5-5----5-5----|-5-5----5-5----|
E|---------------|---------------|---------------|---------------|

e|-----------------|-----------------|-----------------|-----------------|
B|-----------------|-----------------|-----------------|-----------------|
G|-----------------|-----------------|-----------------|-----------------|
D|-----------------|-----------------|-----------------|-----------------|
A|-7-7-7-7-7-7-7-7-|-7-7-7-7-7-7-7-7-|-2-2-2-2-2-2-2-2-|-2-2-2-2-2-2-2-2-|
E|-5-5-5-5-5-5-5-5-|-5-5-5-5-5-5-5-5-|-0-0-0-0-0-0-0-0-|-0-0-0-0-0-0-0-0-|

e|-----------------|-----------------|-----------------|-----------------|
B|-----------------|-----------------|-----------------|-----------------|
G|-----------------|-----------------|-----------------|-----------------|
D|-4-4-4-4-4-4-4-4-|-4-4-4-4-4-4-4-4-|-7-7-7-7-7-7-7-7-|-7-7-7-7-7-7-7-7-|
A|-2-2-2-2-2-2-2-2-|-2-2-2-2-2-2-2-2-|-5-5-5-5-5-5-5-5-|-5-5-5-5-5-5-5-5-|
E|-----------------|-----------------|-----------------|-----------------|



[Interlude]

e|-----------------------|-----------------------|-----------------------|-----------------------|
B|--14-14-14-14-14-14-14-|--14-14-14-14-14-14-14-|--12-12-12-12-12-12-12-|--12-12-12-12-12-12-12-|
G|-----------------------|-----------------------|-----------------------|-----------------------|
D|--11-11-11-11-11-11-11-|--11-11-11-11-11-11-11-|---9--9--9--9--9--9--9-|---9--9--9--9--9--9--9-|
A|-----------------------|-----------------------|-----------------------|-----------------------|
E|-----------------------|-----------------------|-----------------------|-----------------------|
 
e|-----------------------|-----------------------|-----------------------|-----------------------|
B|-----------------------|-----------------------|-----------------------|-----------------------|
G|---6--6--6--6--6--6--6-|---6--6--6--6--6--6--6-|-----------------------|-----------------------|
D|---7--7--7--7--7--7--7-|---7--7--7--7--7--7--7-|---2--2--2--2--2--2--2-|---2--2--2--2--2--2--2-|
A|---7--7--7--7--7--7--7-|---7--7--7--7--7--7--7-|---2--2--2--2--2--2--2-|---2--2--2--2--2--2--2-|
E|---5--5--5--5--5--5--5-|---5--5--5--5--5--5--5-|---0--0--0--0--0--0--0-|---0--0--0--0--0--0--0-|


e|-----------------------|-----------------------|-----------------------|-----------------------|
B|--15-15-15-15-15-15-15-|--15-15-15-15-15-15-15-|--10-10-10-10-10-10-10-|--15-15-15-15-14-14-14-|
G|-----------------------|-----------------------|-----------------------|-----------------------|
D|--12-12-12-12-12-12-12-|--12-12-12-12-12-12-12-|---7--7--7--7--7--7--7-|--12-12-12-12-11-11-11-|
A|-----------------------|-----------------------|-----------------------|-----------------------|
E|-----------------------|-----------------------|-----------------------|-----------------------|
 
e|-----------------------|-----------------------|-----------------------|-----------------------|
B|---3--3--3--3--3--3--3-|---3--3--3--3--3--3--3-|-----------------------|-----------------------|
G|---4--4--4--4--4--4--4-|---4--4--4--4--4--4--4-|---7--7--7--7--7--7--7-|---7--7--7--7--7--7--7-|
D|---4--4--4--4--4--4--4-|---4--4--4--4--4--4--4-|---7--7--7--7--7--7--7-|---6--6--6--6--6--6--6-|
A|---2--2--2--2--2--2--2-|---2--2--2--2--2--2--2-|---5--5--5--5--5--5--5-|---5--5--5--5--5--5--5-|
E|-----------------------|-----------------------|-----------------------|-----------------------|



[Verse 2]

e|----------------|----------------|----------------|----------------|
B|----------------|----------------|----------------|----------------|
G|----------------|----------------|----------------|----------------|
D|----------------|----------------|----------------|----------------|
A|--7-7-7-7-7-7-7-|--7-7-7-7-7-7-7-|--7-7-7-7-7-7-7-|--7-7-7-7-7-7-7-|
E|--5-5-5-5-5-5-5-|--5-5-5-5-5-5-5-|--5-5-5-5-5-5-5-|--5-5-5-5-5-5-5-|

e|-----------------|-----------------|-----------------|---------------------|
B|-----------------|-----------------|-----------------|-9-9-9-9-10-10-10-10-|
G|-----------------|-----------------|-7-7-7-7-7-7-7-7-|---------------------|
D|-4-4-4-4-4-4-4-4-|-2-2-2-2-2-2-2-2-|-7-7-7-7-7-7-7-7-|-6-6-6-6--7--7--7--7-|
A|-4-4-4-4-4-4-4-4-|-2-2-2-2-2-2-2-2-|-5-5-5-5-5-5-5-5-|---------------------|
E|-2-2-2-2-2-2-2-2-|-0-0-0-0-0-0-0-0-|-----------------|---------------------|



[Pre-Chorus 2]

e|---------------|---------------|---------------|---------------|
B|---------------|---------------|---------------|---------------|
G|---------------|---------------|---------------|---------------|
D|-----2------2--|-----2------2--|-----2------2--|-----2------2--|
A|-0-0----0-0----|-0-0----0-0----|---------------|---------------|
E|---------------|---------------|-0-0----0-0----|-0-0----0-0----|

e|---------------|---------------|---------------|---------------|
B|---------------|---------------|---------------|---------------|
G|---------------|---------------|---------------|---------------|
D|-----4------4--|-----4------4--|-----7------7--|-----6------6--|
A|-2-2----2-2----|-2-2----2-2----|-5-5----5-5----|-5-5----5-5----|
E|---------------|---------------|---------------|---------------|

e|-----------------|-----------------|-----------------|-----------------|
B|-----------------|-----------------|-----------------|-----------------|
G|-----------------|-----------------|-----------------|-----------------|
D|-----------------|-----------------|-----------------|-----------------|
A|-7-7-7-7-7-7-7-7-|-7-7-7-7-7-7-7-7-|-2-2-2-2-2-2-2-2-|-2-2-2-2-2-2-2-2-|
E|-5-5-5-5-5-5-5-5-|-5-5-5-5-5-5-5-5-|-0-0-0-0-0-0-0-0-|-0-0-0-0-0-0-0-0-|

e|-----------------|-----------------|-----------------|-----------------|
B|-----------------|-----------------|-----------------|-----------------|
G|-----------------|-----------------|-----------------|-----------------|
D|-4-4-4-4-4-4-4-4-|-4-4-4-4-4-4-4-4-|-7-7-7-7-7-7-7-7-|-7-7-7-7-7-7-7-7-|
A|-2-2-2-2-2-2-2-2-|-2-2-2-2-2-2-2-2-|-5-5-5-5-5-5-5-5-|-5-5-5-5-5-5-5-5-|
E|-----------------|-----------------|-----------------|-----------------|



[Chorus]

e||-----------------------|-----------------------|-----------------------|-----------------------|
B||-----------------------|-----------------------|-----------------------|-----------------------|
G||---6--6--6--6--6--6--6-|---6--6--6--6--6--6--6-|-----------------------|-----------------------|
D||---7--7--7--7--7--7--7-|---7--7--7--7--7--7--7-|---2--2--2--2--2--2--2-|---2--2--2--2--2--2--2-|
A||---7--7--7--7--7--7--7-|---7--7--7--7--7--7--7-|---2--2--2--2--2--2--2-|---2--2--2--2--2--2--2-|
E||---5--5--5--5--5--5--5-|---5--5--5--5--5--5--5-|---0--0--0--0--0--0--0-|---0--0--0--0--0--0--0-|


e|-----------------------|-----------------------|-----------------------|-----------------------|
B|---3--3--3--3--3--3--3-|---3--3--3--3--3--3--3-|-----------------------|-----------------------|
G|---4--4--4--4--4--4--4-|---4--4--4--4--4--4--4-|---7--7--7--7--7--7--7-|---7--7--7--7--7--7--7-|
D|---4--4--4--4--4--4--4-|---4--4--4--4--4--4--4-|---7--7--7--7--7--7--7-|---6--6--6--6--6--6--6-| (x2)
A|---2--2--2--2--2--2--2-|---2--2--2--2--2--2--2-|---5--5--5--5--5--5--5-|---5--5--5--5--5--5--5-|
E|-----------------------|-----------------------|-----------------------|-----------------------|


[Bridge]
(Piano part)
e||-----------|-------------|-----------|-14----12----|
B||-----------|-12----14----|-----------|-------------|
G||-14--------|-------------|-13--------|-------------|
D||-----------|-------------|-----------|-------------|
A||-----------|-------------|-----------|-------------|
E||-----------|-------------|-----------|-------------|


e|-----------|-------------|-----------|-------------|
B|-----------|-------------|-15--------|-14----12----|
G|-11--------|-13----14----|-----------|-------------|
D|-----------|-------------|-----------|-------------| (x4)
A|-----------|-------------|-----------|-------------|
E|-----------|-------------|-----------|-------------|


[Final Chorus]

e||-----------------------|-----------------------|-----------------------|-----------------------|
B||-----------------------|-----------------------|-----------------------|-----------------------|
G||---6--6--6--6--6--6--6-|---6--6--6--6--6--6--6-|-----------------------|-----------------------|
D||---7--7--7--7--7--7--7-|---7--7--7--7--7--7--7-|---2--2--2--2--2--2--2-|---2--2--2--2--2--2--2-|
A||---7--7--7--7--7--7--7-|---7--7--7--7--7--7--7-|---2--2--2--2--2--2--2-|---2--2--2--2--2--2--2-|
E||---5--5--5--5--5--5--5-|---5--5--5--5--5--5--5-|---0--0--0--0--0--0--0-|---0--0--0--0--0--0--0-|


e|-----------------------|-----------------------|-----------------------|-----------------------|
B|---3--3--3--3--3--3--3-|---3--3--3--3--3--3--3-|-----------------------|-----------------------|
G|---4--4--4--4--4--4--4-|---4--4--4--4--4--4--4-|---7--7--7--7--7--7--7-|---7--7--7--7--7--7--7-|
D|---4--4--4--4--4--4--4-|---4--4--4--4--4--4--4-|---7--7--7--7--7--7--7-|---6--6--6--6--6--6--6-| (x2)
A|---2--2--2--2--2--2--2-|---2--2--2--2--2--2--2-|---5--5--5--5--5--5--5-|---5--5--5--5--5--5--5-|
E|-----------------------|-----------------------|-----------------------|-----------------------|



[Verse]
I could never own up
I need to speak up
I don't want to grow up
Don't want to end up caught in a landslide
With the other side

Living for the paycheck
Dying for the weekend
Take another Xanax
Cheating on your girlfriend
Taking your last breath
Counting down the time

[Chorus]
Don't tell me it's too late
I'm stuck at heavens gate
Strike a match and start a wildfire

I'll own all my mistakes
Won't give you what you take
Watch you burning in the wildfire

[Verse]
They said I'd never make it (watching me fall)
All the time I wasted (learning to crawl)
Crawl from the ashes
As this world comes crashing down

[Chorus]
Don't tell me it's too late
I'm stuck at heavens gate
Strike a match and start a wildfire

I'll own all my mistakes
Won't give you what you take
Watch you burning in the wildfire

[Outro]
We won this war
We cursed and swore
They stood no chance at all
(The underdogs came home)

We won this war
We cursed and swore
They stood no chance at all

I don't forget
I don't forgive
I'll never change the way I live
I always fought the urge to fall in line
I turned my back on all the rules
I'll never heed the king of fools
I'll never lead the perfect kind of life

I don't forget, I don't forgive (We won this war)
I'll never change the way I live (We cursed and swore)
I always fought the urge to fall in line (They stood no chance at all)
I turned my back on all the rules (We won this war)
I'll never heed the king of fools (We cursed and swore)
I'll never lead the perfect kind of life (They stood no chance at all)

The Underdogs came home


---------------------------------------------------------------------------------------------------
                                           8. 6/8
---------------------------------------------------------------------------------------------------
Tuning: Drop D


[Intro]

e|-------------------------------|-------------------------------------|
B|-------------------------------|-------------------------------------|
G|-------------10-10-10-10-10-10-|-10-10-10-10-10-10-10-10-10-10-10-10-|
D|-0---0---0---0--0--0--0--0--0--|-0--0--0--0--0--0--0--0--0--0--0--0--| (x2)
A|-0---0---0---8--8--8--8--8--8--|-8--8--8--8--8--8--8--8--8--8--8--8--|
D|-0---0---0---------------------|-------------------------------------|

e|-------------------------------|-------------------------------------|
B|-------------------------------|-------------------------------------|
G|-------------14-14-14-14-14-14-|-14-14-14-14-14-14-14-14-14-14-14-14-|
D|-0---0---0---x--x--x--x--x--x--|-x--x--x--x--x--x--x--x--x--x--x--x--| (x2)
A|-0---0---0---12-12-12-12-12-12-|-12-12-12-12-12-12-12-12-12-12-12-12-|
D|-0---0---0---0--0--0--0--0--0--|-0--0--0--0--0--0--0--0--0--0--0--0--|



[Verse]

e|-----------|--------|
B|-----------|--------|
G|-----------|--------|
D|-0---0---0-|--rest--| (x2)
A|-0---0---0-|--------|
D|-0---0---0-|--------|

e|--------------------------|-----------------------|
B|--------------------------|-----------------------|
G|--------------------------|-----------------------|
D|-8---8---8---8---8---8----|-8---8---8---8---8---8-|
A|-8---8---8---8---8---8----|-8---8---8---8---8---8-|
D|-8---8---8---8---8---8----|-8---8---8---8---8---8-|

e|-------------------------------|-------------------------------------|
B|-------------------------------|-------------------------------------|
G|-------------10-10-10-10-10-10-|-10-10-10-10-10-10-10-10-10-10-10-10-|
D|-0---0---0----x--x--x--x--x--x-|--x--x--x--x--x--x--x--x--x--x--x--x-| (x2)
A|-0---0---0----8--8--8--8--8--8-|--8--8--8--8--8--8--8--8--8--8--8--8-|
D|-0---0---0----0--0--0--0--0--0-|--0--0--0--0--0--0--0--0--0--0--0--0-|



[Chorus]

   Guitar 1
e|--------------------------|-------------------------|-------------------------|
B|--------------------------|-------------------------|-------------------------|
G|--------------------------|-5-----------5-----------|-7-----------7-----------|
D|-3------------3-----------|-5-----------5-----------|-7-----------7-----------|
A|-3------------3-----------|-3-----------3-----------|-5-----------5-----------|
D|-3------------3-----------|-------------------------|-------------------------|
 |
 | Guitar 2
e|-13-----------13----------|-------------12----------|-------------10----------|
B|--------------------------|-----13----------13------|-----10----------10------|
G|-10-----------10----------|-14------14----------14--|-------------------------|
D|--------------------------|-------------------------|-------------------------|
A|--------------------------|-------------------------|-------------------------|
E|--------------------------|-------------------------|-------------------------|

   Guitar 1
e|--------------------------|-------------------------|-------------------------|
B|--------------------------|-------------------------|-------------------------|
G|--------------------------|-------------------------|-5-----------5-----------|
D|-8------------8-----------|-3-----------3-----------|-5-----------5-----------|
A|-8------------8-----------|-3-----------3-----------|-3-----------3-----------|
E|-8------------8-----------|-3-----------3-----------|-------------------------|
 |
 | Guitar 2
e|-10----------10-----------|------------13-----------|-------------12----------|
B|-----11----------11-------|-------------------------|-----13----------13------|
G|---------10----------10---|-10----------------------|-10------------------10--|
D|--------------------------|-------------------------|-------------------------|
A|--------------------------|-------------------------|-------------------------|
E|--------------------------|-------------------------|-------------------------|

   Both Guitars
e|--------------------------------|-------------------------------------|
B|--------------------------------|-------------------------------------|
G|-------------10-10-10-10-10-10--|-10-10-10-10-10-10-10-10-10-10-10-10-|
D|-0---0---0----0--0--0--0--0--0--|--0--0--0--0--0--0--0--0--0--0--0--0-|
A|-0---0---0----8--8--8--8--8--8--|--8--8--8--8--8--8--8--8--8--8--8--8-|
E|-0---0---0----------------------|-------------------------------------|


   Guitar 1
e|--------------------------|-------------------------|-------------------------|
B|--------------------------|-------------------------|-------------------------|
G|--------------------------|-5-----------5-----------|-7-----------7-----------|
D|-3------------3-----------|-5-----------5-----------|-7-----------7-----------|
A|-3------------3-----------|-3-----------3-----------|-5-----------5-----------|
D|-3------------3-----------|-------------------------|-------------------------|
 |
 | Guitar 2
e|-13-----------13----------|-------------12----------|-------------10----------|
B|--------------------------|-----13----------13------|-----10----------10------|
G|-10-----------10----------|-14------14----------14--|-------------------------|
D|--------------------------|-------------------------|-------------------------|
A|--------------------------|-------------------------|-------------------------|
E|--------------------------|-------------------------|-------------------------|

   Guitar 1
e|--------------------------|-------------------------|-------------------------|
B|--------------------------|-------------------------|-------------------------|
G|--------------------------|-------------------------|-5-----------5-----------|
D|-8------------8-----------|-3-----------3-----------|-5-----------5-----------|
A|-8------------8-----------|-3-----------3-----------|-3-----------3-----------|
E|-8------------8-----------|-3-----------3-----------|-------------------------|
 |
 | Guitar 2
e|-10----------10-----------|------------13-----------|-------------12----------|
B|-----11----------11-------|-------------------------|-----13----------13------|
G|---------10----------10---|-10----------------------|-10------------------10--|
D|--------------------------|-------------------------|-------------------------|
A|--------------------------|-------------------------|-------------------------|
E|--------------------------|-------------------------|-------------------------|

   Both Guitars
e|--------------------------------|-------------------------------------|
B|--------------------------------|-------------------------------------|
G|-------------10-10-10-10-10-10--|-10-10-10-10-10-10-10-10-10-10-10-10-|
D|-0---0---0----0--0--0--0--0--0--|--0--0--0--0--0--0--0--0--0--0--0--0-|
A|-0---0---0----8--8--8--8--8--8--|--8--8--8--8--8--8--8--8--8--8--8--8-|
E|-0---0---0----------------------|-------------------------------------|


[Chorus Ending]
e|--------------------------------|-------------------------------------|
B|--------------------------------|-------------------------------------|
G|-------------10-10-10-10-10-10--|-10-10-10-10-10-10-10-10-10-10-10-10-|
D|-0---0---0---0--0--0--0--0--0---|-0--0--0--0--0--0--0--0--0--0--0--0--|
A|-0---0---0---8--8--8--8--8--8---|-8--8--8--8--8--8--8--8--8--8--8--8--|
E|-0---0---0----------------------|-------------------------------------|



[Verse]

B|-----------|--------|
G|-----------|--------|
D|-0---0---0-|--rest--| (x2)
A|-0---0---0-|--------|
D|-0---0---0-|--------|

e|--------------------------|--------------------------|
B|--------------------------|--------------------------|
G|--------------------------|--------------------------|
D|-8---8---8---8---8---8----|-8---8---8---8---8---8----|
A|-8---8---8---8---8---8----|-8---8---8---8---8---8----|
D|-8---8---8---8---8---8----|-8---8---8---8---8---8----|

e|-------------------------------|-------------------------------------|
B|-------------------------------|-------------------------------------|
G|-------------10-10-10-10-10-10-|-10-10-10-10-10-10-10-10-10-10-10-10-|
D|-0---0---0---x--x--x--x--x--x--|-x--x--x--x--x--x--x--x--x--x--x--x--| (x2)
A|-0---0---0---8--8--8--8--8--8--|-8--8--8--8--8--8--8--8--8--8--8--8--|
D|-0---0---0---0--0--0--0--0--0--|-0--0--0--0--0--0--0--0--0--0--0--0--|

e|-------------------------------|-------------------------------------|
B|-------------------------------|-------------------------------------|
G|-------------------------------|-------------------------------------|
D|-0---0---0---------------------|--rest-------------------------------| (x2)
A|-0---0---0---------------------|-------------------------------------|
D|-0---0---0---------------------|-------------------------------------|

e|--------------------------|--------------------------|
B|--------------------------|--------------------------|
G|--------------------------|--------------------------|
D|-8---8---8---8---8---8----|-8---8---8---8---8---8----|
A|-8---8---8---8---8---8----|-8---8---8---8---8---8----|
D|-8---8---8---8---8---8----|-8---8---8---8---8---8----|

e|-------------------------------|-------------------------------------|
B|-------------------------------|-------------------------------------|
G|-------------10-10-10-10-10-10-|-10-10-10-10-10-10-10-10-10-10-10-10-|
D|-0---0---0---x--x--x--x--x--x--|-x--x--x--x--x--x--x--x--x--x--x--x--| (x2)
A|-0---0---0---8--8--8--8--8--8--|-8--8--8--8--8--8--8--8--8--8--8--8--|
D|-0---0---0---0--0--0--0--0--0--|-0--0--0--0--0--0--0--0--0--0--0--0--|



[Chorus 2]

   Guitar 1
e|--------------------------|-------------------------|-------------------------|
B|--------------------------|-------------------------|-------------------------|
G|--------------------------|-5-----------5-----------|-7-----------7-----------|
D|-3------------3-----------|-5-----------5-----------|-7-----------7-----------|
A|-3------------3-----------|-3-----------3-----------|-5-----------5-----------|
D|-3------------3-----------|-------------------------|-------------------------|
 |
 | Guitar 2
e|-13-----------13----------|-------------12----------|-------------10----------|
B|--------------------------|-----13----------13------|-----10----------10------|
G|-10-----------10----------|-14------14----------14--|-------------------------|
D|--------------------------|-------------------------|-------------------------|
A|--------------------------|-------------------------|-------------------------|
E|--------------------------|-------------------------|-------------------------|

   Guitar 1
e|--------------------------|-------------------------|-------------------------|
B|--------------------------|-------------------------|-------------------------|
G|--------------------------|-------------------------|-5-----------5-----------|
D|-8------------8-----------|-3-----------3-----------|-5-----------5-----------|
A|-8------------8-----------|-3-----------3-----------|-3-----------3-----------|
E|-8------------8-----------|-3-----------3-----------|-------------------------|
 |
 | Guitar 2
e|-10----------10-----------|------------13-----------|-------------12----------|
B|-----11----------11-------|-------------------------|-----13----------13------|
G|---------10----------10---|-10----------------------|-10------------------10--|
D|--------------------------|-------------------------|-------------------------|
A|--------------------------|-------------------------|-------------------------|
E|--------------------------|-------------------------|-------------------------|

   Both Guitars
e|--------------------------------|-------------------------------------|
B|--------------------------------|-------------------------------------|
G|-------------10-10-10-10-10-10--|-10-10-10-10-10-10-10-10-10-10-10-10-|
D|-0---0---0---0--0--0--0--0--0---|-0--0--0--0--0--0--0--0--0--0--0--0--|
A|-0---0---0---8--8--8--8--8--8---|-8--8--8--8--8--8--8--8--8--8--8--8--|
E|-0---0---0----------------------|-------------------------------------|


   Guitar 1
e|--------------------------|-------------------------|-------------------------|
B|--------------------------|-------------------------|-------------------------|
G|--------------------------|-5-----------5-----------|-7-----------7-----------|
D|-3------------3-----------|-5-----------5-----------|-7-----------7-----------|
A|-3------------3-----------|-3-----------3-----------|-5-----------5-----------|
D|-3------------3-----------|-------------------------|-------------------------|
 |
 | Guitar 2
e|-13-----------13----------|-------------12----------|-------------10----------|
B|--------------------------|-----13----------13------|-----10----------10------|
G|-10-----------10----------|-14------14----------14--|-------------------------|
D|--------------------------|-------------------------|-------------------------|
A|--------------------------|-------------------------|-------------------------|
E|--------------------------|-------------------------|-------------------------|

   Guitar 1
e|--------------------------|-------------------------|-------------------------|
B|--------------------------|-------------------------|-------------------------|
G|--------------------------|-------------------------|-5-----------5-----------|
D|-8------------8-----------|-3-----------3-----------|-5-----------5-----------|
A|-8------------8-----------|-3-----------3-----------|-3-----------3-----------|
E|-8------------8-----------|-3-----------3-----------|-------------------------|
 |
 | Guitar 2
e|-10----------10-----------|------------13-----------|-------------12----------|
B|-----11----------11-------|-------------------------|-----13----------13------|
G|---------10----------10---|-10----------------------|-10------------------10--|
D|--------------------------|-------------------------|-------------------------|
A|--------------------------|-------------------------|-------------------------|
E|--------------------------|-------------------------|-------------------------|

  Guitat 1 & 2
e|--------------------------------|-------------------------------------|
B|--------------------------------|-------------------------------------|
G|-------------10-10-10-10-10-10--|-10-10-10-10-10-10-10-10-10-10-10-10-|
D|-0---0---0---0--0--0--0--0--0---|-0--0--0--0--0--0--0--0--0--0--0--0--|
A|-0---0---0---8--8--8--8--8--8---|-8--8--8--8--8--8--8--8--8--8--8--8--|
E|-0---0---0----------------------|-------------------------------------|



[Chorus 2 Ending]

e|-------------------------------|-------------------------------------|
B|-------------------------------|-------------------------------------|
G|-------------10-10-10-10-10-10-|-10-10-10-10-10-10-10-10-10-10-10-10-|
D|-0---0---0---0--0--0--0--0--0--|-0--0--0--0--0--0--0--0--0--0--0--0--|
A|-0---0---0---8--8--8--8--8--8--|-8--8--8--8--8--8--8--8--8--8--8--8--|
D|-0---0---0---------------------|-------------------------------------|

e|-------------------------------|-------------------------------------|
B|-------------------------------|-------------------------------------|
G|-------------14-14-14-14-14-14-|-14-14-14-14-14-14-14-14-14-14-14-14-|
D|-0---0---0---x--x--x--x--x--x--|-x--x--x--x--x--x--x--x--x--x--x--x--| (x2)
A|-0---0---0---12-12-12-12-12-12-|-12-12-12-12-12-12-12-12-12-12-12-12-|
D|-0---0---0---0--0--0--0--0--0--|-0--0--0--0--0--0--0--0--0--0--0--0--|



[Bridge]

(Rest during orchestral part, then play at (2:41))

e|-------------------|-------------------|-------------------|-------------------|
B|-------------------|-------------------|-------------------|-------------------|
G|-------------------|-------------------|-------------------|-------------------|
D|-7--7--7--7--7--7--|-5--5--5--5--5--5--|-3--3--3--3--3--3--|-3--3--3--0--2--3--|
A|-5--5--5--5--5--5--|-3--3--3--3--3--3--|-1--1--1--1--1--1--|-1--1--1-----------|
E|-------------------|-------------------|-------------------|-------------------|

e|-------------------|-------------------|-------------------|-------------------|
B|-------------------|-------------------|-------------------|-------------------|
G|-------------------|-------------------|-------------------|-------------------|
D|-7--7--7--7--7--7--|-5--5--5--5--5--5--|-3--3--3--3--3--3--|-3--3--3--3--3--3--|
A|-5--5--5--5--5--5--|-3--3--3--3--3--3--|-1--1--1--1--1--1--|-1--1--1--1--1--1--|
E|-------------------|-------------------|-------------------|-------------------|


 Guitar 1
e|-------------------|-18-------17-------|-20~---------------|-18-------17-------|
B|-18~---------------|-------------------|-------------------|-------------------|
G|-------------------|-------------------|-------------------|-------------------|
D|-------------------|-------------------|-------------------|-------------------|
A|-------------------|-------------------|-------------------|-------------------|
E|-------------------|-------------------|-------------------|-------------------|
 |
 |
e|-------------------|-------------------|-------------------|-------------------|
B|-------------------|-------------------|-------------------|-------------------|
G|-------------------|-------------------|-------------------|-------------------|
D|-7--7--7--7--7--7--|-5--5--5--5--5--5--|-3--3--3--3--3--3--|-3--3--3--0--2--3--|
A|-5--5--5--5--5--5--|-3--3--3--3--3--3--|-1--1--1--1--1--1--|-1--1--1-----------|
E|-------------------|-------------------|-------------------|-------------------|


e|-------------------|-18-------17-------|-20~-------18-------|-17----------------------|
B|-18~---------------|-------------------|--------------------|-------------17----------|
G|-------------------|-------------------|--------------------|-------------------------|
D|-------------------|-------------------|--------------------|-------------------------|
A|-------------------|-------------------|--------------------|-------------------------|
E|-------------------|-------------------|--------------------|-------------------------|
 |
 |
e|-------------------|-------------------|--------------------|-------------------------|
B|-------------------|-------------------|--------------------|-------------------------|
G|-------------------|-------------------|-3-3--3-3--3-3--3-3-|-3-3-3-3-3-3-3-3-3-3-3-3-|
D|-7--7--7--7--7--7--|-5--5--5--5--5--5--|-3-3--3-3--3-3--3-3-|-3-3-3-3-3-3-3-3-3-3-3-3-|
A|-5--5--5--5--5--5--|-3--3--3--3--3--3--|-1-1--1-1--1-1--1-1-|-1-1-1-1-1-1-1-1-1-1-1-1-|
E|-------------------|-------------------|--------------------|-------------------------|
                                           > >  > >  > >  > >


[Chorus 3]

e|-------------------|-------------------|--------------------|-----------------|
B|-------------------|-5-----------------|-6------------------|-3---------------|
G|-------------------|-------------------|--------------------|-----------------|
D|-3-----------------|-5-----------------|-7------------------|-3---------------|
A|-------------------|-------------------|--------------------|-----------------|
E|-------------------|-------------------|--------------------|-----------------|

   Guitar 1
e|-------------------------|-------------------------|
B|-------------------------|-------------------------|
G|-------------------------|-5-----------5-----------|
D|-3-----------3-----------|-5-----------5-----------|
A|-3-----------3-----------|-3-----------3-----------|
E|-3-----------3-----------|-------------------------|
 |
 | Guitar 2
e|------------13-----------|-------------12----------|
B|-------------------------|-----13----------13------|
G|-10----------------------|-10------------------10--|
D|-------------------------|-------------------------|
A|-------------------------|-------------------------|
E|-------------------------|-------------------------|

   Guitar 1 & 2
e|--------------------------------|-------------------------------------|
B|--------------------------------|-------------------------------------|
G|-------------10-10-10-10-10-10--|-10-10-10-10-10-10-10-10-10-10-10-10-|
D|-0---0---0---0--0--0--0--0--0---|-0--0--0--0--0--0--0--0--0--0--0--0--|
A|-0---0---0---8--8--8--8--8--8---|-8--8--8--8--8--8--8--8--8--8--8--8--|
E|-0---0---0----------------------|-------------------------------------|


   Guitar 1
e|--------------------------|-------------------------|-------------------------|
B|--------------------------|-------------------------|-------------------------|
G|--------------------------|-5-----------5-----------|-7-----------7-----------|
D|-3------------3-----------|-5-----------5-----------|-7-----------7-----------|
A|-3------------3-----------|-3-----------3-----------|-5-----------5-----------|
D|-3------------3-----------|-------------------------|-------------------------|
 |
 | Guitar 2
e|-13-----------13----------|-------------12----------|-------------10----------|
B|--------------------------|-----13----------13------|-----10----------10------|
G|-10-----------10----------|-14------14----------14--|-------------------------|
D|--------------------------|-------------------------|-------------------------|
A|--------------------------|-------------------------|-------------------------|
E|--------------------------|-------------------------|-------------------------|

   Guitar 1
e|--------------------------|-------------------------|-------------------------|
B|--------------------------|-------------------------|-------------------------|
G|--------------------------|-------------------------|-5-----------5-----------|
D|-8------------8-----------|-3-----------3-----------|-5-----------5-----------|
A|-8------------8-----------|-3-----------3-----------|-3-----------3-----------|
E|-8------------8-----------|-3-----------3-----------|-------------------------|
 |
 | Guitar 2
e|-10----------10-----------|------------13-----------|-------------12----------|
B|-----11----------11-------|-------------------------|-----13----------13------|
G|---------10----------10---|-10----------------------|-10------------------10--|
D|--------------------------|-------------------------|-------------------------|
A|--------------------------|-------------------------|-------------------------|
E|--------------------------|-------------------------|-------------------------|

  Guitar 1 & 2
e|--------------------------------|-------------------------------------|
B|--------------------------------|-------------------------------------|
G|-------------10-10-10-10-10-10--|-10-10-10-10-10-10-10-10-10-10-10-10-|
D|-0---0---0---0--0--0--0--0--0---|-0--0--0--0--0--0--0--0--0--0--0--0--| (x2)
A|-0---0---0---8--8--8--8--8--8---|-8--8--8--8--8--8--8--8--8--8--8--8--|
E|-0---0---0----------------------|-------------------------------------|

e|-------------------------------|-------------------------------------|
B|-------------------------------|-------------------------------------|
G|-------------14-14-14-14-14-14-|-14-14-14-14-14-14-14-14-14-14-14-14-|
D|-0---0---0---x--x--x--x--x--x--|-x--x--x--x--x--x--x--x--x--x--x--x--| (x2)
A|-0---0---0---12-12-12-12-12-12-|-12-12-12-12-12-12-12-12-12-12-12-12-|
D|-0---0---0---0--0--0--0--0--0--|-0--0--0--0--0--0--0--0--0--0--0--0--|

e|-------------------------------|
B|-------------------------------|
G|-------------------------------|
D|-0-----------------------------|
A|-0-----------------------------|
E|-0-----------------------------|



[Verse 1: Mark]
You live in a world I cannot believe
You create a world I don't want to see
And your forest's a stand of dead trees lost in the night
Did you ever think you'd live down the past
You just want to tie yourself to the mast
All your nightmares have come to at last
At least in your mind

[Chorus: Mark]
Learn to swim in rushing rivers
Breaking on the shore
Make your peace with broken streets
Your face turned towards the storm

[Post-Chorus: Matt]
This shitty guitar needs some personality
This shitty song needs some personality

[Verse 2: Mark (Matt)]
Your hollow accusations no one ever hears
Your wounded senses of pride, a guilty souvenir
All your protests and vacant excuses ring insincere
I just want to find a car to overturn
I just want to light a fire to watch it burn
Now we're past the point of no return and no one is here

[Chorus: Matt]
Learn to swim in rushing rivers
Breaking on the shore
Make your peace with broken streets
Your face turned towards the storm

[Post-Chorus: Matt]
This song needs some fucking personality
Anybody? Somebody?
Give me some fucking personality!
What happened to personality

[Bridge: Matt]
You are afraid
Uneducated on where this would lead
Going on for far too long
We are sorry for the greed
Leave us in pieces and places
War torn and wronged

In between whispers and screams
You permeate my soul
Lost between nightmares and dreams
You decimate this home

[Chorus: Mark]
Learn to swim in rushing rivers
Breaking on the shore
Make your peace with broken streets
Your face turned towards the storm

[Outro: Matt]
How do I look? Disappointing
How about I disappoint them more?
I am a disappointment!
How about I disappoint them more?


---------------------------------------------------------------------------------------------------
                                     9. Long Lost Feeling 
---------------------------------------------------------------------------------------------------
Tuning: Standard


[Intro]

e|-------------------------|-------------------------|
B|-------------------------|-------------------------|
G|-------------------------|-------------------------|
D|-------------------------|-------------------------|
A|-----6-----6-----6-----6-|-----6-----6-----6-----6-|
E|-3-3---3-3---3-3---3-3---|-4-4---4-4---4-4---4-4---|



[Verse]
Guitar 1
e|-------------------------|-------------------------|
B|-------------------------|-------------------------|
G|-------------------------|-------------------------|
D|-------------------------|-------------------------|
A|-----6-----6-----6-----6-|-----6-----6-----6-----6-|
E|-3-3---3-3---3-3---3-3---|-4-4---4-4---4-4---4-4---|

e|---------------------------|-------------------------|
B|---------------------------|-------------------------|
G|---------------------------|-------------------------|
D|---------------------------|-------------------------|
A|-----10-----10-----8-----8-|-----6-----6-----6-----6-|
E|-8-8----8-8----6-6---6-6---|-4-4---4-4---4-4---4-4---|

Guitar 2
e|-----------------------------|---------------------------------------|
B|-----------------------------|---------------------------------------|
G|---8---8---8---8---8---8---8-|----12----12---10---10---8---8---8---8-|
D|-5---5---5---5---6---6---6---|-10----10----8----8----6---6---6---6---|
A|-----------------------------|---------------------------------------|
E|-----------------------------|---------------------------------------|

(transcribed syntesizer)
e|------------------------------------|
B|----------------------------(8)-----|
G|---------------------------------(7)|
D|------------------------------------|
A|-----10~~----8~~--6---6---6---6-----|
E|-8-8------\6----4---4---4---4---x-3~|

Guitar 1
e|----------------------------------|
B|---------------------------8~~~~~~|
G|-------------------------------7~~|
D|----------------------------------|
A|----------------------------------|
E|----------------------------------|



[Chorus]

e|--------------------------|-----------------------|-------------------------|----------------------|
B|--------------------------|-----------------------|-------------------------|----------------------|
G|--------------------------|-----------------------|-------------------------|----------------------|
D|--------------------------|-----------------------|-----5-----5-----5-----5-|----------------------|
A|-----10-----10-----10\8\6-|-----8-----8-----8\6\5-|-3-3---3-3---3-3---3-3---|-----6-----6-----6--6-|
E|-8-8----8-8----8-8--------|-6-6---6-6---6-6-------|-------------------------|-4-4---4-4---4-4--4---|

e|--------------------------|-----------------------|-------------------------|---------------------|
B|--------------------------|-----------------------|-------------------------|---------------------|
G|--------------------------|-----------------------|-------------------------|---------------8\6\5-|
D|--------------------------|-----------------------|-----5-----5-----5-----5-|---------------------|
A|-----10-----10-----10\8\6-|-----8-----8-----8\6\5-|-3-3---3-3---3-3---3-3---|-----6-----6---------|
E|-8-8----8-8----8-8--------|-6-6---6-6---6-6-------|-------------------------|-4-4---4-4---4-------|



[Bridge]

e|--------------------------|-----------------------|-------------------------|----------------------|
B|--------------------------|-----------------------|-------------------------|----------------------|
G|--------------------------|-----------------------|-------------------------|----------------------|
D|--------------------------|-----------------------|-----5-----5-----5-----5-|----------------------|
A|-----10-----10-----10\8\6-|-----8-----8-----8\6\5-|-3-3---3-3---3-3---3-3---|-----6-----6-----6--6-|
E|-8-8----8-8----8-8--------|-6-6---6-6---6-6-------|-------------------------|-4-4---4-4---4-4--4---|

e|--------------------------|-----------------------|-------------------------|---------------------|
B|--------------------------|-----------------------|-------------------------|---------------------|
G|--------------------------|-----------------------|-------------------------|---------------8\6\5-|
D|--------------------------|-----------------------|-----5-----5-----5-----5-|---------------------|
A|-----10-----10-----10\8\6-|-----8-----8-----8\6\5-|-3-3---3-3---3-3---3-3---|-----6-----6---------|
E|-8-8----8-8----8-8--------|-6-6---6-6---6-6-------|-------------------------|-4-4---4-4---4-------|



[Outro]

e|--------------------------|-----------------------|-----------------------------|
B|--------------------------|-----------------------|---------------------------4~|
G|--------------------------|-----------------------|---------------------------5~|
D|--------------------------|-----------------------|-----5-----5-----5-----5---6~|
A|-----10-----10-----10\8\6-|-----8-----8-----8\6\5-|-3-3---3-3---3-3---3-3-----6~|
E|-8-8----8-8----8-8--------|-6-6---6-6---6-6-------|-----------------------------|



[Verse 1: Mark Hoppus]
Made a wish on a mountain top
But an avalanche came and washed away
Wrote a song on an old guitar
But the words were wrong, they made you walk away

[PreChorus: Mark Hoppus]
Said I could have anything I want, forever more
Said I could be anyone I want, but I was bored

[Chorus: Mark Hoppus]
Every day turns into sleepless nights
My head is spinning with the sadness of a long lost feeling
Golden years where I would smash the mirrors
My head is spinning with the sadness of a long lost feeling

[Verse 2: Matt Skiba]
Found a wreck on the ocean floor
Like a tidal wave, you washed it all away
Heard a song on the radio
All the words were right, they made me want to stay

[PreChorus]
Said I could have anything I want, forever more
Said I could be anyone I want, but I was bored

[Chorus]
Every day turns into sleepless nights
My head is spinning with the sadness of a long lost feeling
Golden years where I would smash the mirrors
My head is spinning with the sadness of a long lost feeling

[Bridge: Matt Skiba]
Say goodbye, until it hurts
Stormy skies and fireworks 
Say goodbye, until it hurts
Stormy skies and fireworks 
Say goodbye, until it hurts
Stormy skies and fireworks 


---------------------------------------------------------------------------------------------------
                                     10. Bottom of the Ocean
---------------------------------------------------------------------------------------------------
Tuning: Standard


[Intro]
(00:16)
e|---------------|
B|---------------|
G|-6---6---6---6-|
D|-6---6---6---6-|
A|-4---4---4---4-|
E|---------------|



[Chorus]

e|-----------------|------------------|-------------|-------------|-------------|---------|
B|-----------------|------------------|-------------|-------------|-------------|---------|
G|-6-6-6-6-6-6-6-6-|-8-8-8-8/9-9--8-8-|-16-16-16-16-|-14-14-14-14-|-13-13-13-13-|-9-9-9-9-|
D|-x-x-x-x-x-x-x-x-|-x-x-x-x/x-x--x-x-|--x--x--x--x-|--x--x--x--x-|--x--x--x--x-|-x-x-x-x-| (x4)
A|-4-4-4-4-4-4-4-4-|-6-6-6-6/7-7--6-6-|-14-14-14-14-|-12-12-12-12-|-11-11-11-11-|-7-7-7-7-|
E|-----------------|------------------|-------------|-------------|-------------|---------|

e|--6--|
B|--5--|
G|--6--|
D|--6--|
A|--4--|
E|-----|



[Verse]

e|-----------------|-----------------|-----------------|-------------------|
B|-----------------|-----------------|-----------------|-------------------|
G|-----------------|-----------------|-----------------|-------------------|
D|-6-6-6-6-6-6-6-6-|-6-6-6-6-6-6-6-6-|-----------------|-------------------|
A|-4-4-4-4-4-4-4-4-|-4-4-4-4-4-4-4-4-|-7-7-7-7-7-7-7-7-|-7-7-7-7-7-7-7-7-7-|
E|-----------------|-----------------|-5-5-5-5-5-5-5-5-|-5-5-5-5-5-5-5-5-5-|
         PM                PM               PM                   PM
e|-----------------|-----------------|-----------------|-------------------|
B|-----------------|-----------------|-----------------|-------------------|
G|-----------------|-----------------|-----------------|-------------------|
D|-----------------|-----------------|-----------------|-------------------|
A|-4-4-4-4-4-4-4-4-|-4-4-4-4-4-4-4-4-|-7-7-7-7-7-7-7-7-|-7-7-7-7-7-7-7-7-7-|
E|-2-2-2-2-2-2-2-2-|-2-2-2-2-2-2-2-2-|-5-5-5-5-5-5-5-5-|-5-5-5-5-5-5-5-5-5-|
         PM                PM               PM                   PM
e|-----------------|-----------------|-----------------|-------------------|
B|-----------------|-----------------|-----------------|-------------------|
G|-----------------|-----------------|-----------------|-------------------|
D|-6-6-6-6-6-6-6-6-|-6-6-6-6-6-6-6-6-|-----------------|-------------------|
A|-4-4-4-4-4-4-4-4-|-4-4-4-4-4-4-4-4-|-7-7-7-7-7-7-7-7-|-7-7-7-7-7-7-7-7-7-|
E|-----------------|-----------------|-5-5-5-5-5-5-5-5-|-5-5-5-5-5-5-5-5-5-|
         PM                PM               PM                   PM
e|-----------------|-----------------|-----------------|-------------------|
B|-----------------|-----------------|-----------------|-------------------|
G|-----------------|-----------------|-----------------|-------------------|
D|-----------------|-----------------|-----------------|-------------------|
A|-4-4-4-4-4-4-4-4-|-4-4-4-4-4-4-4-4-|-7-7-7-7-7-7-7-7-|-7-7-7-7-7-7-7-7-7-|
E|-2-2-2-2-2-2-2-2-|-2-2-2-2-2-2-2-2-|-5-5-5-5-5-5-5-5-|-5-5-5-5-5-5-5-5-5-|
         PM                PM               PM                   PM


[Chorus]

e|-----------------|------------------|-------------|-------------|-------------|---------|
B|-----------------|------------------|-------------|-------------|-------------|---------|
G|-6-6-6-6-6-6-6-6-|-8-8-8-8/9-9--8-8-|-16-16-16-16-|-14-14-14-14-|-13-13-13-13-|-9-9-9-9-|
D|-x-x-x-x-x-x-x-x-|-x-x-x-x/x-x--x-x-|--x--x--x--x-|--x--x--x--x-|--x--x--x--x-|-x-x-x-x-| (x4)
A|-4-4-4-4-4-4-4-4-|-6-6-6-6/7-7--6-6-|-14-14-14-14-|-12-12-12-12-|-11-11-11-11-|-7-7-7-7-|
E|-----------------|------------------|-------------|-------------|-------------|---------|

e|--6--|
B|--5--|
G|--6--|
D|--6--|
A|--4--|
E|-----|



[Bridge]

((02:28) Matt uses a delay pedal here))
e|-------------------------|-------------------------|--------------------------|-------------------------|
B|-------------------------|-------------------------|--------------------------|-------------------------|
G|-16-16-16-16-16-16-16-16-|-16-16-16-16-16-16-16-16-|--------------------------|-------------------------|
D|-------------------------|-------------------------|--14-14-14-14-14-14-14-14-|-14-14-14-14-16-16-16-16-|
A|-------------------------|-------------------------|--------------------------|-------------------------|
E|-------------------------|-------------------------|--------------------------|-------------------------|
             PM                       PM                          PM                       PM
e|-------------------------|-------------------------|--------------------------|-------------------------|
B|-------------------------|-------------------------|--------------------------|-------------------------|
G|-16-16-16-16-16-16-16-16-|-16-16-16-16-16-16-16-16-|--------------------------|-------------------------|
D|-------------------------|-------------------------|--14-14-14-14-14-14-14-14-|-14-14-14-14-16-16-16-16-|
A|-------------------------|-------------------------|--------------------------|-------------------------|
E|-------------------------|-------------------------|--------------------------|-------------------------|
             PM                       PM                          PM                       PM


[Chorus]

e|-----------------|------------------|-------------|-------------|
B|-----------------|------------------|-------------|-------------|
G|-6-6-6-6-6-6-6-6-|-8-8-8-8/9-9--8-8-|-16-16-16-16-|-14-14-14-14-|
D|-x-x-x-x-x-x-x-x-|-x-x-x-x/x-x--x-x-|--x--x--x--x-|--x--x--x--x-|
A|-4-4-4-4-4-4-4-4-|-6-6-6-6/7-7--6-6-|-14-14-14-14-|-12-12-12-12-|
E|-----------------|------------------|-------------|-------------|

e|-----------------|------------------|-------------|-------------|-------------|---------|
B|-----------------|------------------|-------------|-------------|-------------|---------|
G|-6-6-6-6-6-6-6-6-|-8-8-8-8/9-9--8-8-|-16-16-16-16-|-14-14-14-14-|-13-13-13-13-|-9-9-9-9-|
D|-x-x-x-x-x-x-x-x-|-x-x-x-x/x-x--x-x-|--x--x--x--x-|--x--x--x--x-|--x--x--x--x-|-x-x-x-x-| (x3)
A|-4-4-4-4-4-4-4-4-|-6-6-6-6/7-7--6-6-|-14-14-14-14-|-12-12-12-12-|-11-11-11-11-|-7-7-7-7-|
E|-----------------|------------------|-------------|-------------|-------------|---------|

e|--6--|
B|--5--|
G|--6--|
D|--6--|
A|--4--|
E|-----|



[Verse 1: Mark Hoppus]
Here nights are foggy and weird
Everyone I trusted disappears
Breathing life into my deepest fears
Take, now there's nothing to take
Now you're haunted by your worst mistakes
Watch me sinking underneath the waves

[PreChorus: Mark Hoppus (Matt Skiba)]
I don't want to drink about it (Stare it down)
Driving out at 3 am (No way out)
Blood is cold, my mind is clouded (And then I woke up drunken)
How'd I make it here again? (Too much, too much to take)

[Chorus: Mark Hoppus (Matt Skiba + Simon Wilcox)]
Days, I've been like this for days
Hiding underneath the darkest waves
I've been praying for the tide to change
Head, is this all in my head?
Running over every word I said
When they finally found my note, it read
("If you need me, I'll be lying here at the bottom of the ocean
If you need me, I'll be right here")

[Verse 2: Mark Hoppus + Matt Skiba]
Air, leave it up in the air
Because the people on the ground don't care
They don't notice but it's everywhere
Chase, now there's nothing to chase
Every day I feel so out of place
Let me wash away without a trace

[PreChorus]
I don't want to drink about it (Stare it down)
Driving out at 3 am (No way out)
Blood is cold, my mind is clouded (And then I woke up drunken)
How'd I make it here again? (Too much, too much to take)

[Chorus]
Days, I've been like this for days
Hiding underneath the darkest waves
I've been praying for the tide to change
Head, is this all in my head?
Running over every word I said
When they finally found my note, it read
("If you need me, I'll be lying here at the bottom of the ocean
If you need me, I'll be right here")

[Bridge: Mark Hoppus (Matt Skiba)]
I'm out here in the deep end
I'm lower than I've ever been
(I burn it down, It turns to smoke)
And when I see the morning
It's colder than it's ever been
(My bloodshot eyes. see through the smoke)

[Chorus]
Days, I've been like this for days
Hiding underneath the darkest waves
I've been praying for the tide to change
Head, is this all in my head?
Running over every word I said
When they finally found my note, it read
("If you need me, I'll be lying here at the bottom of the ocean
If you need me, I'll be right here")


---------------------------------------------------------------------------------------------------
                                  11. Can't Get you more Pregnant
---------------------------------------------------------------------------------------------------
Tuning: Standard


[Intro]

e|--------------|--------------|--------------------------|----|
B|--------------|-7--7---7-7-7-|-7/10-10---10-10-10-10/15-|----|
G|-7--7---7-7-7-|-x--x---x-x-x-|-x/-----------------------|--7-|
D|-x--x---x-x-x-|-4--4---4-4-4-|-4/-7--7----7--7--7--7/12-|--x-|
A|-5--5---5-5-5-|--------------|--------------------------|--5-|
E|--------------|--------------|--------------------------|----|



"GO!"
e|-------------------------------------------|---------------------------------------------|----------------|
B|-7-7-7---5---7-7-7---5---7-7-7---7---7-7-7-|-7/12-12-12---10---12-12-12---10---12-12-12--|-10--12--13--12-|
G|-7-7-7---7---7-7-7---7---7-7-7---5---7-7-7-|-5/12-12-12---12---12-12-12---12---12-12-12--|-12--12--12--12-|
D|-------------------------------------------|---------------------------------------------|----------------|
A|-------------------------------------------|---------------------------------------------|----------------|
E|-------------------------------------------|---------------------------------------------|----------------|

e|-------------------------------------------|---------|----9-9-9--10-10-10--12-12-12--14-14-14--15-|
B|-7-7-7---5---7-7-7---5---7-7-7---7---7-7-7-|-7/12-12-|-12-----------------------------------------|
G|-7-7-7---7---7-7-7---7---7-7-7---5---7-7-7-|-5/12-12-|--------------------------------------------|
D|-------------------------------------------|---------|--------------------------------------------|
A|-------------------------------------------|---------|--------------------------------------------|
E|-------------------------------------------|---------|--------------------------------------------|



[Verse]

e|---------|--------|--------|---------|-------------|---------|--------|--------|---------|-------------|
B|-10------|-7------|-8------|---------|-7h8p7h8-/10-|-10------|-7------|-8------|---------|-7h8p7h8-/10-|
G|----7--7-|---7--7-|---7--7-|-9--7--7-|-------------|----7--7-|---7--7-|---7--7-|-9--7--7-|-------------|
D|---------|--------|--------|---------|-------------|---------|--------|--------|---------|-------------|
A|---------|--------|--------|---------|-------------|---------|--------|--------|---------|-------------|
E|---------|--------|--------|---------|-------------|---------|--------|--------|---------|-------------|
     PM        PM       PM       PM                      PM        PM       PM       PM 

e|-----------------|-----------------|-----------------|-----|
B|-----------------|-----------------|-----------------|-----|
G|-----------------|-----------------|-----------------|-----|
D|-9-9-9-9-9-9-9-9-|-7-7-7-7-7-7-7-7-|-5-5-5-5-5-5-5-5-|--7--|
A|-9-9-9-9-9-9-9-9-|-7-7-7-7-7-7-7-7-|-5-5-5-5-5-5-5-5-|--7--|
E|-7-7-7-7-7-7-7-7-|-5-5-5-5-5-5-5-5-|-3-3-3-3-3-3-3-3-|--5--|



[Outro]

e|-----------------------------|
B|-7-7--7-7-7-|-10-10-10-10-10-|
G|-x-x--x-x-x-|--x--x--x--x--x-|
D|-4-4--4-4-4-|--7--7--7--7--7-|
A|-----------------------------|
E|-----------------------------|



[Verse]
I, I can't get you more pregnant
But if you're worried at all
I can take care of myself
I can take care of myself


---------------------------------------------------------------------------------------------------
                                  12. Bored to Death Acoustic
---------------------------------------------------------------------------------------------------
Tuning: Standard

[Intro]

e|-------------|--------------|----------------|
B|-------------|--------------|----------------|
G|-5-5-5-5-5---|--8-8-8-8-8---|----------------|
D|-5-5-5-5-5---|--8-8-8-8-8---|--6-6-6-6-6-----|
A|-3-3-3-3-3---|--6-6-6-6-6---|--6-6-6-6-6-----|
E|-------------|--------------|--4-4-4-4-4-----|



[Verse]

e|-------------|--------------|----------------|
B|-------------|--------------|----------------|
G|-5-5-5-5-5---|--8-8-8-8-8---|----------------|
D|-5-5-5-5-5---|--8-8-8-8-8---|--6-6-6-6-6-----| (x3)
A|-3-3-3-3-3---|--6-6-6-6-6---|--6-6-6-6-6-----|
E|-------------|--------------|--4-4-4-4-4-----|



[Pre-Chorus]

e|-----------------|-----------------|
B|-----------------|-----------------|
G|-5-5-5-5-5-5-5-5-|-8-8-8-8-8-8-8-8-|
D|-5-5-5-5-5-5-5-5-|-8-8-8-8-8-8-8-8-|
A|-3-3-3-3-3-3-3-3-|-6-6-6-6-6-6-6-6-|
E|-----------------|-----------------|

"And I..."
e|---------------|
B|---------------|
G|---------------|
D|-6----8----13--|
A|-6----8----13--|
E|-4----6----11--|



[Chorus]

e|-------------|-------------|-------------|----------|
B|-------------|-------------|-------------|----------|
G|-8-8-8-8-8---|-------------|-------------|----------|
D|-8-8-8-8-8---|-8-8-8-8-8---|-10-10-10-10-|-6-6-6-6--| (x2)
A|-6-6-6-6-6---|-8-8-8-8-8---|-10-10-10-10-|-6-6-6-6--|
E|-------------|-6-6-6-6-6---|-8--8--8--8--|-4-4-4-4--|



[Verse]

e|-------------|--------------|----------------|
B|-------------|--------------|----------------|
G|-5-5-5-5-5---|--8-8-8-8-8---|----------------|
D|-5-5-5-5-5---|--8-8-8-8-8---|--6-6-6-6-6-----| (x3)
A|-3-3-3-3-3---|--6-6-6-6-6---|--6-6-6-6-6-----|
E|-------------|--------------|--4-4-4-4-4-----|



[Pre-Chorus]

e|-----------------|-----------------|
B|-----------------|-----------------|
G|-5-5-5-5-5-5-5-5-|-8-8-8-8-8-8-8-8-|
D|-5-5-5-5-5-5-5-5-|-8-8-8-8-8-8-8-8-|
A|-3-3-3-3-3-3-3-3-|-6-6-6-6-6-6-6-6-|
E|-----------------|-----------------|


"And I..."
e|---------------|
B|---------------|
G|---------------|
D|-6----8----13--|
A|-6----8----13--|
E|-4----6----11--|



[Chorus]

e|-------------|-------------|-------------|----------|
B|-------------|-------------|-------------|----------|
G|-8-8-8-8-8---|-------------|-------------|----------|
D|-8-8-8-8-8---|-8-8-8-8-8---|-10-10-10-10-|-6-6-6-6--| (x2)
A|-6-6-6-6-6---|-8-8-8-8-8---|-10-10-10-10-|-6-6-6-6--|
E|-------------|-6-6-6-6-6---|-8--8--8--8--|-4-4-4-4--|


[Bridge]
("oh ooh oh ooh oh /I come over and over and over")
e|-----------|-----------|------------|----------|
B|-----------|-----------|------------|----------|
G|-8-8-8-8-8-|-8-8-8-8---|------------|----------|
D|-8-8-8-8-8-|-8-8-8-8---|-6-6-6-6-6--|-8-8-8-8--| (x7)
A|-6-6-6-6-5-|-6-6-6-6---|-6-6-6-6-6--|-8-8-8-8--|
E|-----------|-----------|-4-4-4-4-3--|-6-6-6-6--|



[Chorus]

e|-------------|-------------|-------------|----------|
B|-------------|-------------|-------------|----------|
G|-8-8-8-8-8---|-------------|-------------|----------|
D|-8-8-8-8-8---|-8-8-8-8-8---|-10-10-10-10-|-6-6-6-6--| (x2)
A|-6-6-6-6-6---|-8-8-8-8-8---|-10-10-10-10-|-6-6-6-6--|
E|-------------|-6-6-6-6-6---|-8--8--8--8--|-4-4-4-4--|



[Outro]
("oh ooh oh ooh oh")
e|-----------|-----------|------------|-------------|     
B|-----------|-----------|------------|-------------|     
G|-8-8-8-8-8-|-8-8-8-8---|------------|-------------|     
D|-8-8-8-8-8-|-8-8-8-8---|-6-6-6-6-6--|-8-8-8-8-----| (x6)
A|-6-6-6-6-5-|-6-6-6-6---|-6-6-6-6-6--|-8-8-8-8-----|     
E|-----------|-----------|-4-4-4-4-3--|-6-6-6-6-----|     

e|-----|
B|-----|
G|--8--|
D|--8--|
A|--6--|
E|-----|


There's an echo pulling out the meaning
Rescuing a nightmare from a dream
The voices in my head are always screaming
That none of this means anything to me

And it's a long way back from seventeen
The whispers turn into a scream
And I, I'm not coming home

Save your breath, I'm nearly
Bored to death and fading fast
Life is too short to last long
Back on Earth, I'm broken
Lost and cold and fading fast
Life is too short to last long

There's a stranger staring at the ceiling
Rescuing a tiger from a tree
The pictures in Mark's head are always dreaming
Each of them means everything to me

And it's a long way back from seventeen
The whispers turn into a scream
And I, I'm not coming home

Save your breath, I'm nearly
Bored to death and fading fast
Life is too short to last long
Back on Earth, I'm broken
Lost and cold and fading fast
Life is too short to last long

Oh, oh oh, oh oh, oh oh
Oh oh, oh oh, oh oh, oh oh

(Oh oh, oh oh)
I think I met her at the minute that the rhythm was set down
(Oh oh, oh oh)
I said I'm sorry I'm a bit of a letdown
(Oh oh, oh oh)
But all my friends are daring me to come over
(Oh oh, oh oh)
So I come over and over and over
(Oh oh, oh oh)
So let me buy you a drink and we'll pretend that you think
(Oh oh, oh oh)
That I'm the man of your dreams come to life in a dive bar
(Oh oh, oh oh)
And we'll go over and over and over
(Oh oh, oh oh)
And we'll go over and over and over
(Oh oh, oh oh)
And we'll go over and over and over
(Oh oh, oh oh)
And we'll go over and over and over

Save your breath, I'm nearly
Bored to death and fading fast
Life is too short to last long
Back on Earth, I'm broken
Lost and cold and fading fast
Life is too short to last long

Oh, oh oh, oh oh, oh oh
Oh oh, oh oh, oh oh, oh oh
Oh oh, oh oh, oh oh, oh oh
Oh oh, oh oh, oh oh
(Life is too short to last long)
Oh oh, oh oh, oh oh, oh oh
Oh oh, oh oh, oh oh, oh oh


************************************

| x   Dead note
| h   Hammer-on
| p   Pull-off
| >   Accented note
| t   Tapping
| /   Slide up
| \   Slide down
| ~   Vibrato
| PM  Palm mute

************************************

            
            
Suggest correction
Creating personal tab
Creating personal tab
You can edit any tab online and save it as your Personal.

You can edit, replace or remove any tab part or add personal notes – all changes will be seen only by you.

Personal tabs can be accessed anytime from any device, even offline.
Learn more »
Give kudos to tab author, rate the tab!
1 2 3 4 5
comments
print report bad tab
guest
You may want to rate the tab now too:
select rating
Wanna post a correction for this tab? Suggest correction