Oops, an error
Loading. Please wait.
40,094 views 108 this week
12 commentsread comments
1 2 3 4 5
x 34
add to favorites
×
Save as Personal and add changes to this tab that will be seen only by you. Learn more ›
×
You can save this tab as Personal to edit and correct it or add notes. All changes will be seen only by you. Learn more »
launch autoscroll
font size
0
reset
guitar tuner
edit
Autoscroll
slow
fast
+/-
esc
set tempo
stop
Author
Unregistered
[Intro]

(this sounds great,but it's kinda long)

G|-14-14-14--12-12-12--11-11-|
D|-0--0--0---0--0--0---0--0--|
A|---------------------------| x2
E|---------------------------|


G|-6-6-6--7-7-7--9-9-|
D|-7-7-7--7-7-7--7-7-|
A|-------------------|   x2
E|-------------------|


G|-12-12-12--11-11-11--9-9-9|
D|-9--9--9---9--9--9---9-9-9|
A|--------------------------|  x2
E|--------------------------|

G|-7--7--7--7--7---|
D|-5--5--5--5--5---|
A|-----------------|  x1
E|-----------------|


G|---11-11-12-14-12-11-------------------------9-9-11-12-11-9--|
D|-12---------------------11-11-12-14-12-11--9-----------------|
A|---------------------12--------------------------------------|
E|-------------------------------------------------------------|

G|--7-7-7-7-7-7-|
D|-5-5-5-5-5-5--|
A|--------------|  x2
E|--------------|

(1:04)

G|-11-11-11-11-11-11--9--9--9--9--9--9--11-11-11-11-11-11--9-7-7-7-7-7-7-7-|
D|-0--0--0--0--0--0---7--7--7--7--7--7---9--9--9--9--9--9---5-5-5-5-5-5-5--|
A|-------------------------------------------------------------------------|
E|-------------------------------------------------------------------------|
There is a certain rhythm to this part, but it's easy to figure out.

(1:14)

G|---------------------------------------------------------------*---------------------------------|
D|-4-4-4-4-4-4-4-4-2-2-2-2-2-2-2-2-4-4-4-4-4-4-4-4-7-7-5-4-2-----*0--0-4-0-7-5-0--0--0-4-0-7-5-4-0-|
A|---------------------------------------------------------------*---------------------------------|
E|---------------------------------------------------------------*---------------------------------|


[Verse]

G|-------------------------------------------------------------|
D|-------------------------------------------------------------|
A|-5-5-5-5-5-5-5-----------------------------------------------|
E|---------------5-5-5-5-5-5-5--7-7-7-7-7-7-7--3-3-3-3-3-3-3---|


[Chorus]

(once again this fill is fairly accurate)

G|--------------------------------------------------|
D|--------------------------------------------------|
A|-5-5-5-5-5-5-7-7-7-7-7-7--------------------------|
E|-------------------------5-5-5-9-7-5--3-3-3-7-5-3-|


[Bridge]

G|----------------------------------|
D|----------------------------------|
A|-5---------5----------------------|
E|---5--7--3---5--7-7-7-7--3-3-3-3--|

That's pretty much the whole song...

Here's some extras

This is supposed to be played on the guitar but who cares.

G|-----------------------------------------------------------------------------------------------|
D|-4--4--4-5-4-2-2-2-2--4--4-4-5-4-7-7-5-4-2--4--4-4-5-4-2-2-2-2-0-0-4-0-7-5-0--0--0-4-0-7-5-4-0-|
A|-----------------------------------------------------------------------------------------------|
E|-----------------------------------------------------------------------------------------------|

Changes by Keith, bassist for opium holiday, thanks to Matt Nielson for the 
original version.

            
            
Suggest correction
Creating personal tab
Creating personal tab
You can edit any tab online and save it as your Personal.

You can edit, replace or remove any tab part or add personal notes – all changes will be seen only by you.

Personal tabs can be accessed anytime from any device, even offline.
Learn more »
comments
print report bad tab
12 comments total. Showing first comments.
-2 reply
mgendy123 0 Apr 07, 2002 08:00 PM

im correct in thinking that u are askin me to strum my bass guitar?!?

+1 reply
toypaj_182 0 Apr 11, 2002 08:00 PM

well yeah, you strum your bass. havent you seen blink play live???!!!

+1 reply
WarpedRocker88 0 Mar 23, 2003 07:00 PM

damn right u strum it

guest
Wanna post a correction for this tab? Suggest correction