Oops, an error
Loading. Please wait.
We have an official Carousel tab made by UG professional guitarists. Check out the tab »
×
20,784 views 105 this week
3 commentsread comments
1 2 3 4 5
x 7
add to favorites
×
Save as Personal and add changes to this tab that will be seen only by you. Learn more ›
×
You can save this tab as Personal to edit and correct it or add notes. All changes will be seen only by you. Learn more »
launch autoscroll
font size
0
reset
how to read this tab
guitar tuner
edit
Autoscroll
slow
fast
+/-
esc
set tempo
stop
Author
Standard Tunning
Tabbed By Shane

This song sounds really good on an acoustic guitar, so i tabbed it out so that you can 
it on an acoustic guitar,
and there is no other tabs for an acoustic.
Please note this tab is not to sound exactly like the orignal, just a version i play on 
acoustic guitar.

Here is the opening riff, mark plays something simular on the base on one of the 
versions of the song

  (Very Rapid down strokes)
e|----------------------------------------------------------------------------|
B|----------------------------------------------------------------------------|
G|----------------------------------------------------------------------------|
D|-7-7-7-7-7-7-5-5-5-5-5-5-4-4-4-4-4-4-4-4--7-7-7-7-7-7-5-5-5-5-5-4-4-4-4-4-4-|
A|-5-5-5-5-5-5-5-5-5-5-5-5-5-5-5-5-5-5-5-5--5-5-5-5-5-5-5-5-5-5-5-5-5-5-5-5-5-|
E|----------------------------------------------------------------------------|

e|------------------------------------------------------------------------------|
B|------------------------------------------------------------------------------|
G|------------------------------------------------------------------------------|
D|------------------------------------------------------------------------------|
A|4-4-4-4-4-4-5-5-5-5-5-5-5-7-7-7-7-7-7-7-7-4-4-4-4-4-4-4-5-5-5-5-5-5-7-7-7-7-7-|
E|5-5-5-5-5-5-5-5-5-5-5-5-5-5-5-5-5-5-5-5-5-5-5-5-5-5-5-5-5-5-5-5-5-5-5-5-5-5-5-|

e|------------------------------------------3-3-3-3-3-3-3-|
B|------------------------------------------3-3-3-3-3-3-3-|
G|------------------------------------------0-0-0-0-0-0-0-|
D|------------------------------------------0-0-0-0-0-0-0-|
A|-9-9-9-9-9-10-10-10-9-9-9-9-9-10-10-10-10-2-2-2-2-2-2-2-|
E|-10-10-10--10-10-10-10-10-10--10-10-10-10-3-3-3-3-3-3-3-|

Play the above riff twice

  (After that you can go right to the song, or you can play this riff, it is kinda tricky 
  master it smoothly, If you do play it play it twice )
e|----------------------------------------------------------------------------------------------------|
B|----------------------------------------------------------------------------------------------------|
G|----------------------------------------------------------------------------------------------------|
D|-4-4-4-4-5-7-5-4-5----------------------------------------------------------------------------------|
A|5------------------5--4-4-4-4-5-7-5-4-5-----7-7-7-7-7-7-7-9-10-9-10-9-10---5--5--5--5--5--5--5--5--5|
E|--------------------5-------------------5/7----------------------------------3--3--3--3--3--3--3--3-|

Here are the chords used in the rest of the song

  D   A      B           G       open G   Em   F#
e|-----------------------------------3----------------------------------------|
B|-----------------------------------3----------------------------------------|
G|7----------------------------------0----0-----------------------------------|
D|7----7------9-----------5----------0----2---4-------------------------------|
A|5----7------9-----------5----------2----2---4-------------------------------|
E|-----5------7-----------3----------3----0---2-------------------------------|

You can either use the power chords above or just use open chords, i prefer to play them 
with the acoustic,
     but you can do whichever one you like.

D                   A
i talk to you every now and then
B               G
I never felt so alone again
D                  A
I stop to think at a wishing well
B                    G
My thoughts send me on a carousel
D                     A
Here I am standing on my own
  B               G
Not a motion from the telephone
D              A
I know not a reason why
B               G
Solitudes a reason to die
D         Em       G
Just you wait and see
D              Em
As school life is a
     G
It is a woken dream
D        Em         G
Aren't you feeling aloooooooooooooooone?
D
I guess its just another
Em
I guess its just another
G
I guess its just another night alone

  (Then Play the intro riff again)
e|----------------------------------------------------------------------------|
B|----------------------------------------------------------------------------|
G|----------------------------------------------------------------------------|
D|-7-7-7-7-7-7-5-5-5-5-5-5-4-4-4-4-4-4-4-4--7-7-7-7-7-7-5-5-5-5-5-4-4-4-4-4-4-|
A|-5-5-5-5-5-5-5-5-5-5-5-5-5-5-5-5-5-5-5-5--5-5-5-5-5-5-5-5-5-5-5-5-5-5-5-5-5-|
E|----------------------------------------------------------------------------|

e|------------------------------------------------------------------------------|
B|------------------------------------------------------------------------------|
G|------------------------------------------------------------------------------|
D|------------------------------------------------------------------------------|
A|4-4-4-4-4-4-5-5-5-5-5-5-5-7-7-7-7-7-7-7-7-4-4-4-4-4-4-4-5-5-5-5-5-5-7-7-7-7-7-|
E|5-5-5-5-5-5-5-5-5-5-5-5-5-5-5-5-5-5-5-5-5-5-5-5-5-5-5-5-5-5-5-5-5-5-5-5-5-5-5-|

e|------------------------------------------3-3-3-3-3-3-3-|
B|------------------------------------------3-3-3-3-3-3-3-|
G|------------------------------------------0-0-0-0-0-0-0-|
D|------------------------------------------0-0-0-0-0-0-0-|
A|-9-9-9-9-9-10-10-10-9-9-9-9-9-10-10-10-10-2-2-2-2-2-2-2-|
E|-10-10-10--10-10-10-10-10-10--10-10-10-10-3-3-3-3-3-3-3-|

D                A
Now as I walk down the street
B                   G
I need a job just to sleep in sheets
D                 A
Buying food every once in a while
B                 G
But not enough to purchase a smile

(Only strum the chord once for this part of the song)
D
A tank of gas is a treasure to me
A
I know now that nothing is free
B
I talk to you every now and then
G
I never felt so alone again

  (Then play this little riff again)
e|----------------------------------------------------------------------------------------------------|
B|----------------------------------------------------------------------------------------------------|
G|----------------------------------------------------------------------------------------------------|
D|-4-4-4-4-5-7-5-4-5----------------------------------------------------------------------------------|
A|5------------------5--4-4-4-4-5-7-5-4-5-----7-7-7-7-7-7-7-9-10-9-10-9-10---5--5--5--5--5--5--5--5--5|
E|--------------------5-------------------5/7----------------------------------3--3--3--3--3--3--3--3-|

D       Em        G
Just you wait and see
D               Em
As school life is a
         G
It is a woken dream
D              Em    G
Aren't you feeling aloooooooooooooooooone?

   D
I guess its just another
   Em
I guess its just another
  G
I guess its just another night alone

Then you can just end on the D chord or you can play the intro again.
Please comment if you can think of any good changes to improve this tab.

            
            
Suggest correction
Creating personal tab
Creating personal tab
You can edit any tab online and save it as your Personal.

You can edit, replace or remove any tab part or add personal notes – all changes will be seen only by you.

Personal tabs can be accessed anytime from any device, even offline.
Learn more »
comments
print report bad tab
3 comments total.
+1 reply
hawaii04 10 Mar 21, 2009 11:29 PM

Nice but try a Bm instead of B.

0 reply
strathead64 10 Nov 24, 2009 07:28 PM

Awesome tab, man! Thank you so much for posting!

0 reply
bllfn1 40 Nov 28, 2009 03:25 PM

ha thanks Hawaii04 that does sound better, and i also realized that where i posted
A-9-9-9-9-9-10-10-10-9-9-9-9-9-10-10-10-10-2-2-2-2-2-2-2-|
E-10-10-10--10-10-10-10-10-10--10-10-10-10-3-3-3-3-3-3-3-|

Should actually be
------------------------------------------3-3-3-3-3-3-3-|
------------------------------------------3-3-3-3-3-3-3-|
------------------------------------------0-0-0-0-0-0-0-|
------------------------------------------0-0-0-0-0-0-0-|
-10-10-10-9-9-9-9-7-7-7-10-10-10-9-9-9-7-72-2-2-2-2-2-2-|
-7--7--7--7-7-7-7-7-7-7-7-7-7--7-7-7-7-7-73-3-3-3-3-3-2-|

guest
You may want to rate the tab now too:
select rating
Wanna post a correction for this tab? Suggest correction