Oops, an error
Loading. Please wait.

Dont Tell Me Its Over tab

version 5
version 5

Whole song

Interactive

1,009 views 3 this week
no commentswrite comment
1 2 3 4 5
2 more votes to show rating
add to favorites
×
Save as Personal and add changes to this tab that will be seen only by you. Learn more ›
×
You can save this tab as Personal to edit and correct it or add notes. All changes will be seen only by you. Learn more »
launch autoscroll
font size
0
reset
how to read this tab
guitar tuner
edit
Autoscroll
slow
fast
+/-
esc
set tempo
stop
Author
Difficulty
Blink-182 - Don't Tell Me It's Over

Legend:
. = PM
~ = hold note

e|---------------------------------|
B|---------------------------------|
G|---5~------55------5~------55----|
D|---5~------55------5~------55----|
A|---3~------33------3~------33----|
E|---------------------------------|

e|-------------------------|
B|-------------------------|
G|-------------------------|  x4
D|---5--5-5--5-5--55--5----|
A|---3--3-3--3-3--33--3----|
E|-------------------------|

e|-----------------------------------------|
B|-----------------------------------------|
G|---5-55555555555555----------------------|
D|---5-55555555555555-5-555555-33333333----|
A|---3-33333333333333-5-555555-33333333----|
E|--------------------3-333333-11111111----|

e|-----------------------------------------|
B|-----------------------------------------|
G|---5-55555555555555----------------------|  x3
D|---5-55555555555555-55555555-33333333----|
A|---3-33333333333333-55555555-33333333----|
E|--------------------33333333-11111111----|

e|----------------------------------------------------------------------------|
B|----------------------------------------------------------------------------|
G|----------------------------------------------------------------------------|
D|------2-0-2-----2------2-0-2-----2------2-0-2-----2------2-0-2-----2--------|
A|---3---------3-----3----------3-----3----------3-----3----------3------3----|
E|----------------------------------------------------------------------------|

e|-----------------------------------------|
B|-----------------------------------------|
G|-----------------------------------------|  x4
D|---5-55555555555555----------------------|
A|---3-33333333333333-5-555555-3-333333----|
E|--------------------3-333333-1-111111----|
 PM    ..............   ......   ......

e|-------------------------|
B|-------------------------|
G|-------------------------|  x4
D|---5--5-5--5-5--55--5----|
A|---3--3-3--3-3--33--3----|
E|-------------------------|

e|-----------------------------------------|
B|-----------------------------------------|
G|---5-55555555555555----------------------|
D|---5-55555555555555-5-555555-33333333----|
A|---3-33333333333333-5-555555-33333333----|
E|--------------------3-333333-11111111----|

e|-----------------------------------------|
B|-----------------------------------------|
G|---5-55555555555555----------------------|  x3
D|---5-55555555555555-55555555-33333333----|
A|---3-33333333333333-55555555-33333333----|
E|--------------------33333333-11111111----|

e|----------------------------------------------------------------------------|
B|----------------------------------------------------------------------------|
G|----------------------------------------------------------------------------|
D|------2-0-2-----2------2-0-2-----2------2-0-2-----2------2-0-2-----2--------|
A|---3---------3-----3----------3-----3----------3-----3----------3------3----|
E|----------------------------------------------------------------------------|

e|---------------------------------------|
B|---------------------------------------|
G|---------------------------------------|  x4
D|---55555-55-555555---------------------|
A|---33333-33-333333-5555-77-33333333----|
E|-------------------3333-55-11111111----|
 PM  ..... .. ...... .... .. ........

e|-----------------------------------------|
B|-----------------------------------------|
G|---5-55555555555555----------------------|
D|---5-55555555555555-5-555555-33333333----|
A|---3-33333333333333-5-555555-33333333----|
E|--------------------3-333333-11111111----|

e|-----------------------------------------|
B|-----------------------------------------|
G|---5-55555555555555----------------------|  x7
D|---5-55555555555555-55555555-33333333----|
A|---3-33333333333333-55555555-33333333----|
E|--------------------33333333-11111111----|

e|---------|
B|---------|
G|---5~----|
D|---5~----|
A|---3~----|
E|---------|


Lyrics:
I hear the phone it rings so violently
Can't leave my room, can't breathe since she left me
I will admit I hate those things I said
Girls will always cry, guys will never admit they did

Hold on, hold on, hold on, hold on

Don't tell me that it's over,
I'm not used to this temptation
And when you come back running,
There is no use for explanation
I think these things are too hopeful, even with my expert knowledge
Most girls most do mean trouble, because they are rarely honest

What's with the jokes, all the routines they play
Screw with my head, never cave 'til they get their way
Guys like to run, chicks like to yell you see
Guys hate to fight, girls think its therapy

Hold on, hold on, hold on, hold on

Don't tell me that it's over,
I'm not used to this temptation
And when you come back running,
There is no use for explanation
I think these things are too hopeful, even with my expert knowledge
Most girls most do mean trouble, because they are rarely honest

Hold on, hold on, hold on, hold on

Don't tell me that it's over,
I'm not used to this temptation
And when you come back running,
There is no use for explanation
I think these things are too hopeful, even with my expert knowledge
Most girls most do mean trouble, because they are rarely honest

Don't tell me that it's over,
I'm not used to this temptation
And when you come back running,
There is no use for explanation
I think these things are too hopeful, even with my expert knowledge
Most girls most do mean trouble, because they are rarely honest
Don't tell me that it's over, I'm not used to this temptation

            
            
Suggest correction
Creating personal tab
Creating personal tab
You can edit any tab online and save it as your Personal.

You can edit, replace or remove any tab part or add personal notes – all changes will be seen only by you.

Personal tabs can be accessed anytime from any device, even offline.
Learn more »
Give kudos to tab author, rate the tab!
1 2 3 4 5
comments
print report bad tab
guest
You may want to rate the tab now too:
select rating
Wanna post a correction for this tab? Suggest correction