Oops, an error
Loading. Please wait.

Easy Target bass

version 2
version 2

Whole song

5,769 views 1 this week
4 commentsread comments
1 2 3 4 5
x 9
add to favorites
×
Save as Personal and add changes to this tab that will be seen only by you. Learn more ›
×
You can save this tab as Personal to edit and correct it or add notes. All changes will be seen only by you. Learn more »
launch autoscroll
font size
0
reset
guitar tuner
edit
Autoscroll
slow
fast
+/-
esc
set tempo
stop
Author
from Blink 182
Easy Target
Words and Music by Travis Barker, Tom De Longe and Mark Hoppus
Fast Rock = 160bpm



(Drum Intro-4 Bars)

Intro
|-----------------|-----------------|
|-----------------|-----------------|
|-----------------|-0-0-0-0---------|
|-2-2-2-2-2-2-2-2-|---------0---0-0-|

Verse
|-----------------|-----------------|
|-----------------|-----------------|
|-4-4-4-4-4-4-4-4-|-4-4-4-4-4-4-4-4-|
|-----------------|-----------------|

|-----------------|-----------------|
|-----------------|-----------------|
|-2-2-2-4-4-4-0~~-|~~~~~~~~~~~~~~~~~|
|-----------------|-----------------|

Chorus
|-----------------|-----------------|
|-----------------|-----------------|
|-----------------|-0-0-0-0---------|
|-2-2-2-2-2-2-2-2-|---------0---0-0-|

Verse 2
|-----------------|-----------------|
|-----------------|-----------------|
|-4-4-4-4-4-4-4-4-|-4-4-4-4-4-4-4-4-|
|-----------------|-----------------|

|-----------------|-----------------|
|-----------------|-----------------|
|-2-2-2-4-4-4-0-0-|-0-0-0-0-0-0-0-0-|
|-----------------|-----------------|

Bridge 1
|-----------------|-----------------|
|-----------------|-----------------|
|-5-5-5-5-5-5-5-5-|-7-7-7-7-7-7-7-7-|
|-----------------|-----------------|

Bridge 2
|-----------------|-----------------|
|-----------------|-----------------|
|-5-5-5-5-5-5-5-5-|-4-4-4-4-4-4-4-4-|
|-----------------|-----------------|

Outro
|-----------------|-------------------|
|-----------------|-------------------|
|-----------------|-------------------|
|-2~~~~~~~~~~~~~~~|~~~~~~~~~~~~~~~~~~~|



Intro  x4
Verse 1  x4
Chorus  x4
Verse 1  x2
Verse 2  x2
Chorus  x4
Bridge 1  x3
Bridge 2
Intro  x3
Outro

            
            
Suggest correction
Creating personal tab
Creating personal tab
You can edit any tab online and save it as your Personal.

You can edit, replace or remove any tab part or add personal notes – all changes will be seen only by you.

Personal tabs can be accessed anytime from any device, even offline.
Learn more »
comments
print report bad tab
4 comments total. Showing first comments.
0 reply
minirhyder 225 Nov 05, 2005 12:18 PM

Your verse is totally wrong.

0 reply
RHCPbass15 10 Dec 23, 2005 02:37 AM

at the end you have the outro wrong it goes like this. mark plays along with the guitar

G-----------------------------
D-----------------------------
A------0-2-0---0-2-4-4/5--2-2-
E-2h4-------------------------

0 reply
BlinkMe-Rancid 297 May 31, 2006 04:19 AM

The verse is wrong and the bridge

guest
You may want to rate the tab now too:
select rating
Wanna post a correction for this tab? Suggest correction