Oops, an error
Loading. Please wait.
6,340 views 1 this week
4 commentsread comments
1 2 3 4 5
x 3
add to favorites
×
Save as Personal and add changes to this tab that will be seen only by you. Learn more ›
×
You can save this tab as Personal to edit and correct it or add notes. All changes will be seen only by you. Learn more »
launch autoscroll
font size
0
reset
guitar tuner
edit
Autoscroll
slow
fast
+/-
esc
set tempo
stop
Author
Difficulty
Blink 182 - Feeling This
Tabbed By - Mark O'Donnell (markod1991@hotmail.com)

Believe Me, This Is The Closest To The Actual Song On This Site, The others are okay, 
this is definetley the closest.

Verse

G----4----4---4--------2---1----------------------------1---|
D-22---22---2------4---------2-----6----6---6----2---22---2-|
A---------------22---2---2------44---44---4---00---0--------|
E-----------------------------------------------------------|

G----4----4---4--------2---1-------------------------22-1---|
D-22---22---2------4---------2-----6----6---6----2--------2-|
A---------------22---2---2------44---44--4----00---0--------|
E-----------------------------------------------------------|

G----4----4---4--------2---1----------------------------1---|
D-22---22---2------4---------2-----6----6---6----2---22---2-|
A---------------22---2---2------44---44--4----00---0--------|
E-----------------------------------------------------------|

G----4----4---4--------2---1-------------------------22-1---|
D-22---22---2------4---------2-----6----6---6----2--------2-|
A---------------22---2---2------44---44--4----00---0--------|
E-----------------------------------------------------------|


Chorus.

G-----------------------------------------------------------|
D-----------------------------------------------------------|
A-----------44444444-66666666-22222222----------------------|
E--22222222-------------------------------------------------|

G-----------------------------------------------------------|
D-----------------------------------------------------------|
A-----------44444444-66666666-22222222----------------------|
E--22222222-------------------------------------------------|


Short Break Til 0:55


Verse.

G----4----4---4--------2---1----------------------------1---|
D-22---22---2------4---------2-----6----6---6----2---22---2-|
A---------------22---2---2------44---44--4----00---0--------|
E-----------------------------------------------------------|

G----4----4---4--------2---1-------------------------22-1---|
D-22---22---2------4---------2-----6----6---6----2--------2-|
A---------------22---2---2------44---44--4----00---0--------|
E-----------------------------------------------------------|

G----4----4---4--------2---1----------------------------1---|
D-22---22---2------4---------2-----6----6---6----2---22---2-|
A---------------22---2---2------44---44--4----00---0--------|
E-----------------------------------------------------------|


Chorus.

G-----------------------------------------------------------|
D-----------------------------------------------------------|
A-----------44444444-66666666-22222222----------------------|
E--22222222-------------------------------------------------|

G-----------------------------------------------------------|
D-----------------------------------------------------------|
A-----------44444444-66666666-22222222----------------------|
E--22222222-------------------------------------------------|


Short Break (Drums & Singing) Bass Enters at 1:45

Bridge.

G-----------------------------------------------------------|
D-----------------------------------------------------------|
A--44444444----------11111111-------------------------------|
E-----------44444444----------22222222----------------------|

G-------------------------753-------------------------------|
D-----------------------------3-----------------------------|
A--44444444----------1111-----------------------------------|
E-----------44444444----------------------------------------|

Last Chorus.

G----4---4---4----------2---1-------------------------------|
D-22---2---2---2----4---------2----6---6---6------2-----2---|
A----------------22---2---2-----44---4---4---4-00---000---0-|
E-----------------------------------------------------------|

G----4---4---4----------2---1-------------------------------|
D-22---2---2---2----4---------2----6----6-------------------|
A----------------22---2---2-----44---44---46----6----6------|
E--------------------------------------------44---44---46---|

G----4----4---4--------2---1--------------------------------|
D-22---22---2------4---------2-----6----6---6----2-----2----|
A---------------22---2---2------44---44---4---00---000---0--|
E-----------------------------------------------------------|

G----4----4---4--------2---1--------------------------------|
D-22---22---2------4---------2-----6----6-------------------|
A---------------22---2---2------44---44---46----6-----6-----|
E--------------------------------------------44---444---4---|

G----4----4---4--------2---1--------------------------------|
D-22---22---2------4---------2-----6----6-------2-----2-----|
A---------------22---2---2------44---44---4---00---000---0--|
E-------------------------------------------4---------------|

G----4---4---4----------2---1-------------------------------|
D-22---2---2---2----4---------2----6----6-------------------|
A----------------22---2---2-----44---44---46----6-----6-----|
E--------------------------------------------44---444---4---|

G----4----4---4--------2---1--------------------------------|
D-22---22---2------4---------2-----6----6---6----2-----2----|
A---------------22---2---2------44---44---4---00---000---0--|
E-----------------------------------------------------------|

G----4---4---4----------2---1-------------------------------|
D-22---2---2---2----4---------2----6----6-------------------|
A----------------22---2---2-----44---44---46----6-----6-----|
E--------------------------------------------44---444---46~-|


This is the closest thing to the real tab on here, the others are waaaaay to simple and 
not a simple song on bass. Have fun learning this and enjoy :)

MARK HOPPUS IS A LEGEND!!

            
            
Suggest correction
Creating personal tab
Creating personal tab
You can edit any tab online and save it as your Personal.

You can edit, replace or remove any tab part or add personal notes – all changes will be seen only by you.

Personal tabs can be accessed anytime from any device, even offline.
Learn more »
Give kudos to tab author, rate the tab!
1 2 3 4 5
comments
print report bad tab
4 comments total. Showing first comments.
0 reply
drumbumpv 30 Oct 16, 2009 02:35 PM

ok its ok......but not good

+1 reply
RobMcdonald 73 Oct 11, 2011 09:36 PM

Chorus is completely wrong.

0 reply
markod91 52 Oct 12, 2011 08:57 AM

I'm gonna be honest, I knew basically nothing when I made this tab lol, and the fact that I wrote it's not a simple song, jeez!

guest
You may want to rate the tab now too:
select rating
Wanna post a correction for this tab? Suggest correction