Oops, an error
Loading. Please wait.
We have an official Feeling This tab made by UG professional guitarists. Check out the tab »
×
1,842 views 6 this week
1 commentread comment
1 2 3 4 5
1 last vote to show rating
add to favorites
×
Save as Personal and add changes to this tab that will be seen only by you. Learn more ›
×
You can save this tab as Personal to edit and correct it or add notes. All changes will be seen only by you. Learn more »
launch autoscroll
font size
0
reset
how to read this tab
guitar tuner
edit
Autoscroll
slow
fast
+/-
esc
set tempo
stop
-------------------------------------------------------------------------------
                             Feeling This - Blink 182
-------------------------------------------------------------------------------
Tabbed by: Tom Thornhill

https://www.youtube.com/watch?v=2M3c1T73Yyk
Tuning: Drop D (Just tune the low E so that the seventh fret lines up with A string

Capo 2
This Tab Get's the Riff at the beginning to sound exactly as it's recorded by Tom

e|---------------------------------------------------------------------------|
B|---------------------------------------------------------------------------|
G|--99--777--7--7/-11--------------------------------------------------------|
D|--00--000--0--0---0--0-----------------------------------------------------|
A|--77--555--5--5/--9--0-----------------------------------------------------|
E|--xx--xxx--0--x------0-----------------------------------------------------|


************************************

| /   slide up
| \   slide down
| h   hammer-on
| p   pull-off
| ~   vibrato
| +   harmonic
| x   Mute note
| b   Bend
| pb  Pre-bend
| br  Bend release
| pbr Pre-bend release
| brb Bend release bend

************************************

            
            
Suggest correction
Creating personal tab
Creating personal tab
You can edit any tab online and save it as your Personal.

You can edit, replace or remove any tab part or add personal notes – all changes will be seen only by you.

Personal tabs can be accessed anytime from any device, even offline.
Learn more »
Give kudos to tab author, rate the tab!
1 2 3 4 5
comments
print report bad tab
1 comment total.
0 reply
joefowler53 133 Feb 12, 2015 01:07 PM

Very nice. I had never seen it tabbed this way and then I watched the video last night, was gonna post it but you're all over it.

guest
You may want to rate the tab now too:
select rating
Wanna post a correction for this tab? Suggest correction