Oops, an error
Loading. Please wait.
We have an official First Date tab made by UG professional guitarists. Check out the tab »
×
18,465 views 6 this week
2 commentsread comments
1 2 3 4 5
x 13
add to favorites
×
Save as Personal and add changes to this tab that will be seen only by you. Learn more ›
×
You can save this tab as Personal to edit and correct it or add notes. All changes will be seen only by you. Learn more »
launch autoscroll
font size
0
reset
how to read this tab
guitar tuner
edit
Autoscroll
slow
fast
+/-
esc
set tempo
stop
Author
-------------------------------------------------------------------------------
                             First Date - Blink 182
-------------------------------------------------------------------------------
Tabbed by: Dan-E
Email: total_guitar_player@hotmail.com
Song: First Date
Band/Artist: Blink 182
Tuning: EADGBe/Standard.

Listen carefully to the song and you wont need any help. 

Intro:
e|-0-------------------------------------------------------------------------|
B|---1---1---3-1---1---3-1---1---3-1---0-------------------------------------|
G|-----0---0-----0---0-----0---0-----0---0-----------------------------------|
D|---------------------------------------------------------------------------|
A|---------------------------------------------------------------------------|
E|---------------------------------------------------------------------------|

e|-0-------------------------------------------------------------------------|
B|---1---1---3-1---1---3-1---1---3-1---0-------------------------------------|
G|-----0---0-----0---0-----0---0-----0---0-----------------------------------|
D|---------------------------------------------------------------------------|
A|---------------------------------------------------------------------------|
E|---------------------------------------------------------------------------|


Verse:
e|---------------------------------------------------------------------------|
B|---------------------------------------------------------------------------|
G|-5------------5-5-5--5-5-5--5-5-5--5-5-5--5-5-5--5-5-5--5-5-5--5-5-5-------|
D|-5-------------------------------------------------------------------------|
A|-3-------------------------------------------------------------------------|
E|---------------------------------------------------------------------------|


Chorus/Pre Chorus:
e|---------------------------------------------------------------------------|
B|---------------------------------------------------------------------------|
G|-5-5-5--0-0-0--2-2-2-2-----------------------------------------------------|
D|-5-5-5--5-5-5--2-2-2-2--3-3--5-5-------------------------------------------|
A|-3-3-3--3-3-3--0-0-0-0--3-3--5-5-------------------------------------------|
E|------------------------1-1--3-3-------------------------------------------|

e|---------------------------------------------------------------------------|
B|---------------------------------------------------------------------------|
G|-5-5-5-5-0-0-0-0-2-2-2-2----------5-5-5-5-0-0-0-0-2-2-2-2------------------|
D|-5-5-5-5-5-5-5-5-2-2-2-2-3-3-5-5--5-5-5-5-5-5-5-5-2-2-2-2-3-3-5-5----------|
A|-3-3-3-3-3-3-3-3-0-0-0-0-3-3-5-5--3-3-3-3-3-3-3-3-0-0-0-0-3-3-5-5----------|
E|-------------------------1-1-3-3--------------------------1-1-3-3----------|


Riff after the chorus:
e|-0-------------------------------------------------------------------------|
B|---1---1---3-1---1---3-1---1---3-1---0-------------------------------------|
G|-----0---0-----0---0-----0---0-----0---0-----------------------------------|
D|---------------------------------------------------------------------------|
A|---------------------------------------------------------------------------|
E|---------------------------------------------------------------------------|

e|-0-------------------------------------------------------------------------|
B|---1---1---3-1---1---3-1---1---3-1---0-------------------------------------|
G|-----0---0-----0---0-----0---0-----0---0-----------------------------------|
D|---------------------------------------------------------------------------|
A|---------------------------------------------------------------------------|
E|---------------------------------------------------------------------------|


Verse:
e|---------------------------------------------------------------------------|
B|---------------------------------------------------------------------------|
G|-5------------5-5-5--5-5-5--5-5-5--5-5-5--5-5-5--5-5-5--5-5-5--5-5-5-------|
D|-5-------------------------------------------------------------------------|
A|-3-------------------------------------------------------------------------|
E|---------------------------------------------------------------------------|


Chorus/Pre Chorus:
e|---------------------------------------------------------------------------|
B|---------------------------------------------------------------------------|
G|-5-5-5--0-0-0--2-2-2-2-----------------------------------------------------|
D|-5-5-5--5-5-5--2-2-2-2--3-3--5-5-------------------------------------------|
A|-3-3-3--3-3-3--0-0-0-0--3-3--5-5-------------------------------------------|
E|------------------------1-1--3-3-------------------------------------------|

e|---------------------------------------------------------------------------|
B|---------------------------------------------------------------------------|
G|-5-5-5-5-0-0-0-0-2-2-2-2----------5-5-5-5-0-0-0-0-2-2-2-2------------------|
D|-5-5-5-5-5-5-5-5-2-2-2-2-3-3-5-5--5-5-5-5-5-5-5-5-2-2-2-2-3-3-5-5----------|
A|-3-3-3-3-3-3-3-3-0-0-0-0-3-3-5-5--3-3-3-3-3-3-3-3-0-0-0-0-3-3-5-5----------|
E|-------------------------1-1-3-3--------------------------1-1-3-3----------|


Bridge:
e|---------------------------------------------------------------------------|
B|---------------------------------------------------------------------------|
G|-5x5x5x5x5x5x5x5x----------------------------------------------------------|
D|-5x5x5x5x5x5x5x5x-2x2x2x2x2x2x2x2x-3x3x3x3x3x3x3x3x-5x5x5x5x5x5x5x5x-------|
A|-3x3x3x3x3x3x3x3x-2x2x2x2x2x2x2x2x-3x3x3x3x3x3x3x3x-5x5x5x5x5x5x5x5x-------|
E|------------------0x0x0x0x0x0x0x0x-1x1x1x1x1x1x1x1x-3x3x3x3x3x3x3x3x-------|

|---------------------------------------------------------------------------|
B|---------------------------------------------------------------------------|
G|-5x5x5x5x5x5x5x5x----------------------------------------------------------|
D|-5x5x5x5x5x5x5x5x-2x2x2x2x2x2x2x2x-3x3x3x3x3x3x3x3x-5x5x5x5x5x5x5x5x-------|
A|-3x3x3x3x3x3x3x3x-2x2x2x2x2x2x2x2x-3x3x3x3x3x3x3x3x-5x5x5x5x5x5x5x5x-------|
E|------------------0x0x0x0x0x0x0x0x-1x1x1x1x1x1x1x1x-3x3x3x3x3x3x3x3x-------|

e|---------------------------------------------------------------------------|
B|---------------------------------------------------------------------------|
G|-5-5-5-5-5-5-5-5--9-9-9-9-9--5-5--10-10-10-10-10--5-5--7-7-7-7-7-7-7-------|
D|-5-5-5-5-5-5-5-5--9-9-9-9-9--5-5--10-10-10-10-10--5-5--7-7-7-7-7-7-7-------|
A|-3-3-3-3-3-3-3-3--7-7-7-7-7--3-3---8--8--8--8--8--3-3--5-5-5-5-5-5-5-------|
E|---------------------------------------------------------------------------|

e|---------------------------------------------------------------------------|
B|---------------------------------------------------------------------------|
G|-5-5-5-5-5-5-5-5--9-9-9-9-9--5-5--10-10-10-10-10--5-5--7-7-7-7-7-7-7-------|
D|-5-5-5-5-5-5-5-5--9-9-9-9-9--5-5--10-10-10-10-10--5-5--7-7-7-7-7-7-7-------|
A|-3-3-3-3-3-3-3-3--7-7-7-7-7--3-3---8--8--8--8--8--3-3--5-5-5-5-5-5-5-------|
E|---------------------------------------------------------------------------|


Chorus/Pre Chorus:
e|---------------------------------------------------------------------------|
B|---------------------------------------------------------------------------|
G|-5-5-5--0-0-0--2-2-2-2-----------------------------------------------------|
D|-5-5-5--5-5-5--2-2-2-2--3-3--5-5-------------------------------------------|
A|-3-3-3--3-3-3--0-0-0-0--3-3--5-5-------------------------------------------|
E|------------------------1-1--3-3-------------------------------------------|

e|---------------------------------------------------------------------------|
B|---------------------------------------------------------------------------|
G|-5-5-5-5-0-0-0-0-2-2-2-2----------5-5-5-5-0-0-0-0-2-2-2-2------------------|
D|-5-5-5-5-5-5-5-5-2-2-2-2-3-3-5-5--5-5-5-5-5-5-5-5-2-2-2-2-3-3-5-5----------|
A|-3-3-3-3-3-3-3-3-0-0-0-0-3-3-5-5--3-3-3-3-3-3-3-3-0-0-0-0-3-3-5-5----------|
E|-------------------------1-1-3-3--------------------------1-1-3-3----------|

Outro:
e|-0-------------------------------------------------------------------------|
B|---1---1---3-1---1---3-1---1---3-1---0-------------------------------------|
G|-----0---0-----0---0-----0---0-----0---0-----------------------------------|
D|---------------------------------------------------------------------------|
A|---------------------------------------------------------------------------|
E|---------------------------------------------------------------------------|

e|-0-------------------------------------------------------------------------|
B|---1---1---3-1---1---3-1---1---3-1---0-------------------------------------|
G|-----0---0-----0---0-----0---0-----0---0-----------------------------------|
D|---------------------------------------------------------------------------|
A|---------------------------------------------------------------------------|
E|---------------------------------------------------------------------------|

e|---------------------------------------------------------------------------|
B|---------------------------------------------------------------------------|
G|-5-------------------------------------------------------------------------|
D|-5-------------------------------------------------------------------------|
A|-3-------------------------------------------------------------------------|
E|---------------------------------------------------------------------------|


Lyrics:
Verse:
In the car I just can't wait,
to pick you up on our very first date
Is it cool if I hold your hand?
Is it wrong if I think it's lame to dance?
Do you like my stupid hair?
Would you guess that I didn't know what to wear?
I'm too scared of what you think
You make me nervous so I really can't eat

Chorus/Pre Chorus:
Let's go, don't wait, this night's almost over
Honest, let's make this night last forever
Forever and ever, let's make this last forever
Forever and ever, let's make this last forever

Verse:
When you smile, I melt inside
I'm not worthy for a minute of your time
I really wish it was only me and you
I'm jealous of everybody in the room
Please don't look at me with those eyes
Please don't hint that you're capable of lies
I dread the thought of our very first kiss
A Target that I'm probably gonna miss

Chorus/Pre Chorus:
Let's go,don't wait, this night's almost over
Honest, let's make this night last forever
Forever and ever, let's make this last forever
Forever and ever, let's make this last forever

Let's go, don't wait, this night's almost over
Honest, let's make, this night last forever
Forever and ever, let's make this last forever
Forever and ever, let's make this last forever
Forever and ever, let's make this last forever
Forever and ever, let's make this last forever


I guess this was it. I hope this the right version and I hope you'll have fun with it.
To ask me ANY thing just mail me: total_guitar_player@hotmail.com

            
            
Suggest correction
Creating personal tab
Creating personal tab
You can edit any tab online and save it as your Personal.

You can edit, replace or remove any tab part or add personal notes – all changes will be seen only by you.

Personal tabs can be accessed anytime from any device, even offline.
Learn more »
comments
print report bad tab
2 comments total. show 1 bad comment
+2 reply
Troyrulz 460 Dec 16, 2004 07:00 PM

The chorus is a little off, this is how it really is....


e|------------------------------------------------------------------
B|------------------------------------------------------------------
G|-----------------2-2-2-2------------------------------------------
D|-5-5-5---5-5-5---2-2-2-2---3-3//5-----(x2)------------------------
A|-3-3-3---2-2-2---0-0-0-0---3-3//5-0-------------------------------
E|---------------------------1-1//3-0-------------------------------


e|------------------------------------------------------------------
B|-5-5-5--5--5-5---3-3-3--3--3---1-1-1--1--1------------------------
G|-5-5-5--5--5-5---0-0-0--0--0---2-2-2--2--2------------------------
D|-5-5-5--5--5-5---0-0-0--0--0---2-2-2--2--2---3--3-3-5--------(x2)-
A|-3-3-3--3--3-3---2-2-2--2--2---0-0-0--0--0---3--3-3-5--0-0--------
E|---------------------------------------------1--1-1-3--0-0--------


and try fixing the guitar solo, all those x's make it look stupid, if its palm muted just stick ..........'s under the tab where to pm.

guest
You may want to rate the tab now too:
select rating
Wanna post a correction for this tab? Suggest correction