Oops, an error
Loading. Please wait.
We have an official First Date tab made by UG professional guitarists. Check out the tab »
×
46,218 views 21 this week
45 commentsread comments
1 2 3 4 5
x 35
add to favorites
×
Save as Personal and add changes to this tab that will be seen only by you. Learn more ›
×
You can save this tab as Personal to edit and correct it or add notes. All changes will be seen only by you. Learn more »
launch autoscroll
font size
0
reset
how to read this tab
guitar tuner
edit
Autoscroll
slow
fast
+/-
esc
set tempo
stop
Author
Unregistered
[Riff 1]

E|--0------------------------------------------------------------------------|
B|----1-1-1-1-1-1-1---3---1-1-1-1-1-1-1---3---1-1-1-1-1-1-1---3---1-1-1-0----|
G|---------------------------------------------------------------------------|
D|---------------------------------------------------------------------------|
A|---------------------------------------------------------------------------|
E|---------------------------------------------------------------------------|

E|---0-------------------------------------------------------------------------|
B|-----1-1-1-1-1-1-1---3---1-1-1-1-1-1-1---3---1-1-1-1-1-1-1---3---1-1-1-0-1---|
G|-----------------------------------------------------------------------------|
D|-----------------------------------------------------------------------------|
A|-----------------------------------------------------------------------------|
E|-----------------------------------------------------------------------------|


[Verse]

      C        
        In the car I just can't wait

        To pick you up on our very first date

        Is it cool if I hold your hand ?

        Is it wrong if I think it's lame to dance ?


E|-----------|
B|--1-1-1----|
G|-----------| Repeat Palm muted
D|-----------|
A|-----------|
E|-----------|

        Do you like my stupid hair ?
        Would you guess that I didn't know what to wear ?
        I'm just scared of what you think
        You make me nervous so I can't eat.


[Chorus]

      C
        Let's go
      B
        Don't wait
      A             F      G
        This nights almost over
      C         B          A          F       G
        Honest, let's make this night last forever.
      C         B
        Forever and ever
      A                 F       G
        Let's make this last forever
      C         B        A                F       G
        Forever and ever. Let's make this last forever.


[Riff 1]

E|--0------------------------------------------------------------------------|
B|----1-1-1-1-1-1-1---3---1-1-1-1-1-1-1---3---1-1-1-1-1-1-1---3---1-1-1-0----|
G|---------------------------------------------------------------------------|
D|---------------------------------------------------------------------------|
A|---------------------------------------------------------------------------|
E|---------------------------------------------------------------------------|

E|---0-------------------------------------------------------------------------|
B|-----1-1-1-1-1-1-1---3---1-1-1-1-1-1-1---3---1-1-1-1-1-1-1---3---1-1-1-0-1---|
G|-----------------------------------------------------------------------------|
D|-----------------------------------------------------------------------------|
A|-----------------------------------------------------------------------------|
E|-----------------------------------------------------------------------------|


[Verse]

     C 
        When you smile, I melt inside

        I'm not worthy for a minute of your time

        I really wish it was only me and you.

        I'm jealous of everybody in the room.

E|-----------|
B|--1-1-1----|
G|-----------| Repeat Palm muted
D|-----------|
A|-----------|
E|-----------|

        Please don't look at me with those eyes
        Please don't hint that you're capable of lies
        I dread the though of our very first kiss
        A target that I'm probably gonna miss


[Chorus]

      C
        Let's go
      B
        Don't wait
      A             F      G
        This nights almost over
      C         B          A          F       G
        Honest, let's make this night last forever.
      C         B
        Forever and ever
      A                 F       G
        Let's make this last forever
      C         B        A                F       G
        Forever and ever. Let's make this last forever.


[Riff 2]

(Palm muted)

E|------------------------------------------------------------------|
B|------------------------------------------------------------------|
G|------------------------------------------------------------------|
D|------------------------------------------------------------------|
A|-3-3-3-3-3-3-3-3--------------------------------------------------|
E|-------------------0-0-0-0-0-0-0---1-1-1-1-1-1-1---3-3-3-3-3-3-3--|

E|------------------------------------------------------------------|
B|------------------------------------------------------------------|
G|------------------------------------------------------------------|
D|------------------------------------------------------------------|
A|-3-3-3-3-3-3-3-3--------------------------------------------------|
E|-------------------0-0-0-0-0-0-0---1-1-1-1-1-1-1---3-3-3-3-3-3-3--|


[Riff 3]

E|------------------------------------------------------------------------------------|
B|------------------------------------------------------------------------------------|
G|------------------------------------------------------------------------------------| x4
D|----------------------2-2-2-2---------------3-3-3-3---------------0-0-0-0-0-0-0-0---|
A|--3-3-3-3-3-3-3-----------------3-3-3-----------------3-3-3-------------------------|
E|------------------------------------------------------------------------------------|


[Chorus]

      C
        Let's go
      B
        Don't wait
      A             F      G
        This nights almost over
      C         B          A          F       G
        Honest, let's make this night last forever.
      C         B
        Forever and ever
      A                 F       G
        Let's make this last forever
      C         B        A                F       G
        Forever and ever. Let's make this last forever.

End on C




CHORD CHART:
        F       B       G       C       A
E|--------------------------------------------------------------------
B|--------------------------------------------------------------------
G|--------------4---------------5-------------------------------------
D|------3-------4-------5-------5-------7-----------------------------
A|------3-------2-------5-------3-------7-----------------------------
E|------1---------------3---------------5-----------------------------



***************************************

| ~   let ring
| x   palm mute

***************************************

            
            
Suggest correction
Creating personal tab
Creating personal tab
You can edit any tab online and save it as your Personal.

You can edit, replace or remove any tab part or add personal notes – all changes will be seen only by you.

Personal tabs can be accessed anytime from any device, even offline.
Learn more »
comments
print report bad tab
45 comments total. Showing first comments. show 1 bad comment
0 reply
double.h 0 Jan 01, 2002 07:00 PM

You can palm mute open strings. You rest you picking hand just in front of the string saddles and pick the notes.

+1 reply
Blnk182 0 Feb 21, 2002 07:00 PM

Sorry but this tab is totally wrong. not one part of it was right. i have the book.

guest
Wanna post a correction for this tab? Suggest correction