Oops, an error
Loading. Please wait.
We have an official Give Me One Good Reason tab made by UG professional guitarists. Check out the tab »
×
56,289 views 15 this week
16 commentsread comments
1 2 3 4 5
x 21
add to favorites
×
Save as Personal and add changes to this tab that will be seen only by you. Learn more ›
×
You can save this tab as Personal to edit and correct it or add notes. All changes will be seen only by you. Learn more »
launch autoscroll
font size
0
reset
how to read this tab
guitar tuner
edit
Autoscroll
slow
fast
+/-
esc
set tempo
stop
Author
Unregistered
Chords:

        E       B       G#      C#      A
E|--------------------------------------------------------------------|
B|--------------------------------------------------------------------|
G|--------------4---------------6-------------------------------------|
D|------2-------4-------6-------6-------7-----------------------------|
A|------2-------2-------6-------4-------7-----------------------------|
E|------0---------------4---------------5-----------------------------|


[Intro]

E|-----------------------------------------------------------------------------------------------|
B|-----------------------------------------------------------------------------------------------|
G|-----1------1------------------------1----1---------------------1-----1-----1------------------|
D|---2------2---2----4-2---4-2---2---2----2---2---4-2---4-2---2-----2-----2--------2-2---2-2---2-|
A|-2------2--------2-----2-----2---2----2-------2-----2-----2---4-----4-----4----0-----0-----0---|
E|-----------------------------------------------------------------------------------------------|
   |-------------------------------------------------------------------------------------------|
                                           Clean

E|-----------------------------------------------------------------------|
B|-----------------------------------------------------------------------|
G|--1----1--1-----------------4-4-4-4------------------------------------|
D|---2----2------4-4---4-4----4-4-4-4------------------------------------|
A|-4----4--4---2-----2-----2--2-2-2-2------------------------------------|
E|-----------------------------------------------------------------------|
   |-----------------------|
             Clean


[Verse]
(palm muted)

E                   B
  Mom and Dad they quite don't  understand it
E                    B
  All the kids they laugh as if they planned it
C#                      A
  Why do girls want to pierce their nose
C#                    B
  And walk around in torn pantyhose, oh yeah


[Riff 1]

E|--------------------------------------------------------------------------|
B|--------------------------------------------------------------------------|
G|-----------1--------------------1-----------------------------------------|
D|-2-2-2-2------1-2-2---2-2-2-2------1-2-2----------------------------------|
A|-2-2-2-2--------------2-2-2-2---------------------------------------------|
E|-0-0-0-0--------------0-0-0-0---------------------------------------------|


[Verse]
(palm muted)

E                               B
  I like the ones who say they listen to the punk rock
E                             B
  I like the kids who fight against how they were brought up
C#                                     A
  They hate the trends and think it's  fucked to care
C#                                  B
  It's  cool when they piss people off with what they wear, oh yeah


[Riff 1]


[Chorus]

E           G#        B
  So give me one good reason
E          G#    B            A
  Why we need to be like them
E            G#          B
  Kids will have fun and offend
E              G#         B           A
  They don't  want to and don't  fit in


[Intro]


[Verse]
(palm muted)

E                                  B
  Hate the jocks, the preps, the hippie-fuckin\' scumbags
E                              B
  Heavy-metallers with their awful, pussy hair bands
C#                       A
  Counting seconds until we can get away
C#                       B
  Ditchin'  school almost every single day, oh yeah !


[Riff 1] (x4)


[Chorus]


[Riff 2]

E|-------------------------------------------------------------------------------|
B|-------------------------------------------------------------------------------|
G|---------------1-1-1--2-2-2--1-1-----------------------------------------------|
D|-2-2-2--4-4-4---------------------2-2--2-2-2-------------2-2-2-----------------|
A|----------------------------------------------2-2-2-2-2---------2-2-2-2-2------|
E|-------------------------------------------------------------------------------|

E|-------------------------------------------------------------------------------|
B|-------------------------------------------------------------------------------|
G|---------------1-1-1--2-2-2--1-1------------------1----------------1-----------|
D|-2-2-2--4-4-4---------------------2-2--4-4-4-4-4-----2-2--4-4-4-4-----2-2------|
A|-------------------------------------------------------------------------------|
E|-------------------------------------------------------------------------------|

E|-------------------------------------------------------------------------------|
B|-------------------------------------------------------------------------------|
G|---------------1-1-1--2-2-2--1-1-----------------------------------------------|
D|-2-2-2--4-4-4---------------------2-2--2-2-2-------------2-2-2-----------------|
A|----------------------------------------------2-2-2-2-2---------2-2-2-2-2------|
E|-------------------------------------------------------------------------------|

E|-------------------------------------------------------------------------------|
B|-------------------------------------------------------------------------------|
G|---------------1-1-1--2-2-2--1-1------------------1----------------1-----------|
D|-2-2-2--4-4-4---------------------2-2--4-4-4-4-4-----2-2--4-4-4-4-----2--1--2~-|
A|-------------------------------------------------------------------------------|
E|-------------------------------------------------------------------------------|


[Chorus]


End on E


************************************

| ~  let ring
| x  palm mute

************************************

            
            
Suggest correction
Creating personal tab
Creating personal tab
You can edit any tab online and save it as your Personal.

You can edit, replace or remove any tab part or add personal notes – all changes will be seen only by you.

Personal tabs can be accessed anytime from any device, even offline.
Learn more »
comments
print report bad tab
16 comments total. Showing first comments.
+2 reply
Zizzo 10 Aug 27, 2003 08:00 PM

good tab. i think its all correct except for the little riff thingy. it goes like this:

E|-------------------
B|-------------------
G|------1------------
D|-2222--------1/2-2-
A|-2222---[222]------
E|-0000--------------

/=slide
when the notes are in the brackets it means palm mute

and thats it. good job.

0 reply
jimrigby 10 Apr 04, 2004 08:00 PM

space it out a bit more. hi to cram and matty

0 reply
jimrigby 10 Apr 04, 2004 08:00 PM

space it out a bit more. hi to cram and matty

guest
Wanna post a correction for this tab? Suggest correction