Oops, an error
Loading. Please wait.
We have an official Left Alone tab made by UG professional guitarists. Check out the tab »
×
3,259 views 3 this week
3 commentsread comments
1 2 3 4 5
x 6
add to favorites
×
Save as Personal and add changes to this tab that will be seen only by you. Learn more ›
×
You can save this tab as Personal to edit and correct it or add notes. All changes will be seen only by you. Learn more »
launch autoscroll
font size
0
reset
guitar tuner
edit
Autoscroll
slow
fast
+/-
esc
set tempo
stop
Author
Unregistered
[Verse/Intro]

G|----7-6-7-9-11-9-6-6-6-6-6-6-6-4-2--|
D|------------------------------------|
A|------------------------------------|
E|------------------------------------|

G|----7-6-7-9-11-9--------------------|
D|-----------------6-6-6-6-6-6-6-8-10-|
A|------------------------------------|
E|------------------------------------|


[Pre-Chorus]
(is the same as the verses,
except it adds this)

G|----7-7-7-7-7-7-7-7-7-7-7-7-9-11----|
D|------------------------------------|
A|------------------------------------|
E|------------------------------------|


G|------------------------------------|
D|------------------------------------|
A|----9-9-9-9-9-9-7-------------------|
E|------------------------------------|


[Chorus]

D|------------------------------------|
G|------------------------------------|
A|--------------------7-7-7-7-7-7-7-7-|
E|----5-5-5-5-5-5-5-5-----------------|

G|------------------------------------|
D|------------------------------------|
A|----9-9-9-9-9-9-9-9-5-5-5-5-5-5-5-5-|
E|------------------------------------|



[Bridge]

G|----7-6-7-9-11-9-6-6-6-6-6-6-6-4-2--|
D|------------------------------------|
A|------------------------------------|
E|------------------------------------|

G|----7-6-7-9-11-9--------------------|
D|-----------------6-6-6-6-6-6-6-8-10-|
A|------------------------------------|
E|------------------------------------|

            
            
Suggest correction
Creating personal tab
Creating personal tab
You can edit any tab online and save it as your Personal.

You can edit, replace or remove any tab part or add personal notes – all changes will be seen only by you.

Personal tabs can be accessed anytime from any device, even offline.
Learn more »
comments
print report bad tab
3 comments total.
0 reply
bradd101 320 Jul 26, 2016 02:57 PM

This needs to be put under "Bass Tab" not the standard version. Also, tablature is typically done going from G downwards to E, as opposed to E downawards to G

0 reply
elkay182 13 Jul 30, 2016 12:02 PM

This needs to be put under "Bass Tab" not the standard version. Also, tablature is typically done going from G downwards to E, as opposed to E downawards to G

0 reply
elkay182 13 Jul 30, 2016 12:03 PM

This needs to be put under "Bass Tab" not the standard version. Also, tablature is typically done going from G downwards to E, as opposed to E downawards to G

guest
Wanna post a correction for this tab? Suggest correction