Oops, an error
Loading. Please wait.
We have an official Man Overboard tab made by UG professional guitarists. Check out the tab »
×
34,777 views 27 this week
7 commentsread comments
1 2 3 4 5
x 16
add to favorites
×
Save as Personal and add changes to this tab that will be seen only by you. Learn more ›
×
You can save this tab as Personal to edit and correct it or add notes. All changes will be seen only by you. Learn more »
launch autoscroll
font size
0
reset
guitar tuner
edit
Autoscroll
slow
fast
+/-
esc
set tempo
stop
Author
Unregistered
Band: blink 182
Song: Man Overboard
Album: The Mark, Tom, and Travis Show

[Intro]
(you will find this version easier to play)"so sorry,it's over"
G:---------------------------------------------------------------------|
D:-------12---10---9----------12---10---9----------12---10---9--9--9---|
A:-10-10---10---10---10-10-10---10---10---10-10-10---10----10-10-10-10-|
E:---------------------------------------------------------------------|
"soon..."
G:-----|
D:-----|
A:-5~--|
E:-----|

Guitar switch part:
G:-----------------------------------------------------------|
D:-----------------------------------------------------------|
A:/10-10-10-10-10--5-5-5-5-5-5/7-7-7-7-7-7-7--3-3-3-3-3-3-3--|
E:-----------------------------------------------------------|

[Verse]
(also after intro)
G:-----------------------------------------------------------|
D:-----------------------------------------------------------|
A:----------------------------------------3-3-3-3-3-3-3-3-3--|
E:-3-3-3-3-3-3-3-3-3-3-3-3--0-0-0-0-0-0-0--------------------|

Riff 1("You can only lean on me for so long...)
G:---------------------------------------------------|
D:---------------------------------------------------|
A:---------------5-5-5-5-5-------------3-3-3-3-3-3-3-|
E:-3-3-3-3-3-3-3-----------0-0-0-0-0-0---------------|

Second "so sorry" part
G:--------------|
D:--------------|
A:--------------|
E:--3~--5~--8~--|

[Outro:] play intro

TAB: Matt Nielsen zorg500@hotmail.com

            
            
Suggest correction
Creating personal tab
Creating personal tab
You can edit any tab online and save it as your Personal.

You can edit, replace or remove any tab part or add personal notes – all changes will be seen only by you.

Personal tabs can be accessed anytime from any device, even offline.
Learn more »
comments
print report bad tab
7 comments total. Showing first comments.
0 reply
deezers 10 Jun 02, 2003 08:00 PM

ya ya u smell...

0 reply
deezers 10 Jun 02, 2003 08:00 PM

--------F---U---C----K----Y---O---U

0 reply
repsac_hoppus 10 Dec 12, 2005 07:50 PM

y do u talk 2 ur sulf

guest
Wanna post a correction for this tab? Suggest correction