Oops, an error
Loading. Please wait.
We have an official Man Overboard tab made by UG professional guitarists. Check out the tab »
×
82,784 views 87 this week
2 commentsread comments
1 2 3 4 5
x 22
add to favorites
×
Save as Personal and add changes to this tab that will be seen only by you. Learn more ›
×
You can save this tab as Personal to edit and correct it or add notes. All changes will be seen only by you. Learn more »
launch autoscroll
font size
0
reset
how to read this tab
guitar tuner
edit
Autoscroll
slow
fast
+/-
esc
set tempo
stop
Author
Unregistered
Blink 182,Man Overboard.
Tabbed by Claudio Medeiros,crasher_rj@uol.com.
  

[Intro]

(Bass)

G|------------------------------------------------------------------|
D|-----0-0-------------0-0--------------0-0-------------------------|
A|---------3-3-2-2---------3-3-2-2----------3-3-2-2-3-3-2-2-3-3-2-2-|
E|-3-3-------------3-3--------------3-3-----------------------------|(2x)

So sorry it's over...

e|-----------------------------------------------------------------|
B|-----------------------------------------------------------------|
G|---------------------------------5-5-5-5-5-5-5-5-5-5-5-5-5-5-5-5-|
D|-5-5-5-5-5-5-5-5-7-7-7-7-7-7-7-7-5-5-5-5-5-5-5-5-5-5-5-5-5-5-5-5-|
A|-5-5-5-5-5-5-5-5-7-7-7-7-7-7-7-7-3-3-3-3-3-3-3-3-3-3-3-3-3-3-3-3-|
E|-3-3-3-3-3-3-3-3-5-5-5-5-5-5-5-5---------------------------------|(3x)

Time keeps moving...

e|---------------------------------------------------|
B|---------------------------------------------------|
G|---------------------------------5-5-5-5-5-5-5-5-7-|
D|-5-5-5-5-5-5-5-5-7-7-7-7-7-7-7-7-5-5-5-5-5-5-5-5-7-|
A|-5-5-5-5-5-5-5-5-7-7-7-7-7-7-7-7-3-3-3-3-3-3-3-3-5-|
E|-3-3-3-3-3-3-3-3-5-5-5-5-5-5-5-5-------------------|(1x*)

*-Deixa o som do D5(x577xx) rolar!

Riff 1...

e|---------------------------------------------|
B|---------------------------------------------|
G|---------------------------------------------|
D|---------------------------------------------|
A|-----2h3p2--0-2h3p2-0-------2h3p2--0-2h3p2-0-|
E|-3-3-------------------0-0-------------------|(2x)

Riff 2...

e|-------------------------|
B|-------------------------|
G|-------------------------|
D|-5-5-----0-----0-0h2p0---|
A|-----2h3---------------3-|
E|-------------------------|(4x)

Let's take some time...

e|-----------------------------------------------------------------|
B|-----------------------------------------------------------------|
G|-------------------------------------------------5-5-5-5-5-5-5-5-|
D|-5-5-5-5-5-5-5-5-5-5-5-5-5-5-5-5-2-2-2-2-2-2-2-2-5-5-5-5-5-5-5-5-|
A|-5-5-5-5-5-5-5-5-5-5-5-5-5-5-5-5-2-2-2-2-2-2-2-2-3-3-3-3-3-3-3-3-|
E|-3-3-3-3-3-3-3-3-3-3-3-3-3-3-3-3-0-0-0-0-0-0-0-0-----------------|(2x*)

* - Toque fazendo palm mute!

You can only lean...

e|---------------------------|
B|---------------------------|
G|--------7-7-7--------5-5-5-|
D|--5-5-5-7-7-7--2-2-2-5-5-5-|
A|--5-5-5-5-5-5--2-2-2-3-3-3-|
E|--3-3-3--------0-0-0-------|(2x)

Riff 1...

e|---------------------------------------------|
B|---------------------------------------------|
G|---------------------------------------------|
D|---------------------------------------------|
A|-----2h3p2--0-2h3p2-0-------2h3p2--0-2h3p2-0-|
E|-3-3-------------------0-0-------------------|(2x)

I remember shots...

e|--------------------------------------------------------------------------|
B|--------------------------------------------------------------------------|
G|----------------------------------------------------------5-5-5-5-5-5-5-5-|
D|-5-5-5-5-5-5-5-5-5-5-5-5-5-5-5-5-2-2-2-2-2-2----2----2----5-5-5-5-5-5-5-5-|
A|-5-5-5-5-5-5-5-5-5-5-5-5-5-5-5-5-2-2-2-2-2-2----2----2----3-3-3-3-3-3-3-3-|
E|-3-3-3-3-3-3-3-3-3-3-3-3-3-3-3-3-0-0-0-0-0-0----0----0--------------------|(2x*)

* - Toque fazendo palm mute, mas em alguns momentos a nota sobresai (Escute a músioca)!

You can only lean...

e|---------------------------|
B|---------------------------|
G|--------7-7-7--------5-5-5-|
D|--5-5-5-7-7-7--2-2-2-5-5-5-|
A|--5-5-5-5-5-5--2-2-2-3-3-3-|
E|--3-3-3--------0-0-0-------|(2x)

So sorry it's over...

e|-------------------|
B|-------------------|
G|-----------------5-|
D|-5/-----/7-------5-|
A|-5/slide/7-------3-|
E|-3/-----/5---------|(4x*)

* - Deixe o som de todas as notas rolar!

Riff 1...

e|---------------------------------------------|
B|---------------------------------------------|
G|---------------------------------------------|
D|---------------------------------------------|
A|-----2h3p2--0-2h3p2-0-------2h3p2--0-2h3p2-0-|
E|-3-3-------------------0-0-------------------|(2x)

Riff 2...

e|-------------------------|
B|-------------------------|
G|-------------------------|
D|-5-5-----0-----0-0h2p0---|
A|-----2h3---------------3-|
E|-------------------------|(4x)

Man on a mission can't...

e|-----------------------------------------------------------------|
B|-----------------------------------------------------------------|
G|---------------------------------5-5-5-5-5-5-5-5-5-5-5-5-5-5-5-5-|
D|-5-5-5-5-5-5-5-5-5-5-5-5-5-5-5-5-5-5-5-5-5-5-5-5-5-5-5-5-5-5-5-5-|
A|-5-5-5-5-5-5-5-5-5-5-5-5-5-5-5-5-3-3-3-3-3-3-3-3-3-3-3-3-3-3-3-3-|
E|-3-3-3-3-3-3-3-3-3-3-3-3-3-3-3-3---------------------------------|

Insider information...

e|-----------------------------------------------------------------|
B|-----------------------------------------------------------------|
G|---------------------------------5-5-5-5-5-5-5-5-5-5-5-5-5-5-5-5-|
D|-5-5-5-5-5-5-5-5-7-7-7-7-7-7-7-7-5-5-5-5-5-5-5-5-5-5-5-5-5-5-5-5-|
A|-5-5-5-5-5-5-5-5-7-7-7-7-7-7-7-7-3-3-3-3-3-3-3-3-3-3-3-3-3-3-3-3-|
E|-3-3-3-3-3-3-3-3-5-5-5-5-5-5-5-5---------------------------------|

Loss of a good friend best...

e|-----------------------------------------------------------------|
B|-----------------------------------------------------------------|
G|---------------------------------5-5-5-5-5-5-5-5-5-5-5-5-5-5-5-5-|
D|-5-5-5-5-5-5-5-5-5-5-5-5-5-5-5-5-5-5-5-5-5-5-5-5-5-5-5-5-5-5-5-5-|
A|-5-5-5-5-5-5-5-5-5-5-5-5-5-5-5-5-3-3-3-3-3-3-3-3-3-3-3-3-3-3-3-3-|
E|-3-3-3-3-3-3-3-3-3-3-3-3-3-3-3-3---------------------------------|

Tight lipped procrastination...

e|---------------------------------------------------------------------|
B|---------------------------------------------------------------------|
G|---------------------------------5-5-5-5-5-5-5-5-7-7-7-7-7-7-7-7-----|
D|-5-5-5-5-5-5-5-5-7-7-7-7-7-7-7-7-5-5-5-5-5-5-5-5-7-7-7-7-7-7-7-7---5-|
A|-5-5-5-5-5-5-5-5-7-7-7-7-7-7-7-7-3-3-3-3-3-3-3-3-5-5-5-5-5-5-5-5---5-|
E|-3-3-3-3-3-3-3-3-5-5-5-5-5-5-5-5-----------------------------------3-|

*-Deixa o som do G5 (355xxx) rolar!


************************************

| h  Hammer-on
| p  Pull-off
| /  Slide up

************************************

            
            
Suggest correction
Creating personal tab
Creating personal tab
You can edit any tab online and save it as your Personal.

You can edit, replace or remove any tab part or add personal notes – all changes will be seen only by you.

Personal tabs can be accessed anytime from any device, even offline.
Learn more »
comments
print report bad tab
2 comments total.
0 reply
BrandMusic 61 Jun 16, 2012 09:40 PM

Hey you should know you have the best tab here. direct. basic. and sounds really good.
You win. Why there were more tabs made after this one is beyond me

0 reply
gopaulmc 10 Oct 24, 2013 04:32 AM

Very good tab, awesome

guest
Wanna post a correction for this tab? Suggest correction