Oops, an error
Loading. Please wait.
We have an official Man Overboard tab made by UG professional guitarists. Check out the tab »
×
8,272 views 1 this week
1 commentread comment
1 2 3 4 5
x 6
add to favorites
×
Save as Personal and add changes to this tab that will be seen only by you. Learn more ›
×
You can save this tab as Personal to edit and correct it or add notes. All changes will be seen only by you. Learn more »
launch autoscroll
font size
0
reset
how to read this tab
guitar tuner
edit
Autoscroll
slow
fast
+/-
esc
set tempo
stop
Blink 182
Man Overboard (solo riffs)
Tabbed by James Low whatisaturnip@yahoo.co.uk

This ain't the whole song, i ain't got the chords yet,
but i got the two solo riffs that appear throughout
the song, and mine sounds more like the CD than the others here!

Send me verbal abuse, corrections, requests, or anything really!

Play this riff a few times

E---------------------------------------------------------------|
B---------------------------------------------------------------|
G---------------------------------------------------------------|
D---------------------------------------------------------------|
A---0-2-3-2---0-2-3-2-0----0-2-3-2--0-2-3-2-0-------------------|
E-3----------------------0--------------------------------------|

Then play this riff a few times

E---------------------------------------------------------------|
B---------------------------------------------------------------|
G---------------------------------------------------------------|
D-5-------------2-----------------------------------------------|
A---2-3-5---5-5---5-3-------------------------------------------|
E---------------------------------------------------------------|

The timing in this probably ain't any good, but the notes are all
here, if anyone is feeling generous, they can send me the chords!

            
            
Suggest correction
Creating personal tab
Creating personal tab
You can edit any tab online and save it as your Personal.

You can edit, replace or remove any tab part or add personal notes – all changes will be seen only by you.

Personal tabs can be accessed anytime from any device, even offline.
Learn more »
comments
print report bad tab
1 comment total.
0 reply
DeanGuitarist77 20 Mar 01, 2007 11:19 AM

The intro chords are

E----------------
B----------------
G-------------5--
D---5----7----5--
A---5----7----3--
E---3----5-------

These chords repeat 4x, then on the fourth time, play

E------
G------
B---7--
D---7--
A---5--
E------

guest
Wanna post a correction for this tab? Suggest correction