Oops, an error
Loading. Please wait.
We have an official Misery tab made by UG professional guitarists. Check out the tab »
×

Misery tab

version 2
version 2

Whole song

  • Tabbed both guitar parts on the day song was relea... Show more
  • This is my first guess at the New Blink-182 Song "... Show more

Interactive

5,299 views 72 this week
no commentswrite comment
1 2 3 4 5
x 19
add to favorites
×
Save as Personal and add changes to this tab that will be seen only by you. Learn more ›
×
You can save this tab as Personal to edit and correct it or add notes. All changes will be seen only by you. Learn more »
launch autoscroll
font size
0
reset
how to read this tab
guitar tuner
edit
Autoscroll
slow
fast
+/-
esc
set tempo
stop
Author
Difficulty
[Intro & Verse]
e|-----2-----2-----2----2--------2------2------2-----2-----------|
B|-----3-----3-----3----3--------3------3------3-----3-----------|
G|---------------------------0-------0------0-----0--------------|
D|--2-----2-----2----2-------------------------------------------|
A|---------------------------------------------------------------|
E|---------------------------------------------------------------| 

e|-----2-----2-----2------2-------2------2------2-------2--------|
B|-----3-----3-----3------3-------3------3------3-------3--------|
G|---------------------------------------------------------------|
D|--0-----0-----0------0-----------------------------------------| x3
A|-----------------------------3------3------3------3------------|
E|---------------------------------------------------------------|



[Pre-Chorus]
e|---------------------------------------------------------------|
B|---------------------------------------------------------------|
G|---9-9-9---------5-5-5-----------------------------------------|
D|---9-9-9---------5-5-5---------5--5--5--5--5--5--x-x-x-x-------|
A|---7-7-7---------3-3-3---------5--5--5--5--5--5--x-x-x-x-------|
E|-------------------------------3--3--3--3--3--3--x-x-x-x-------|

e|---------------------------------------------------------------|
B|---------------------------------------------------------------|
G|---9-9-9---------5-5-5---------7-777777777777777---------------|
D|---9-9-9---------5-5-5---------7-777777777777777---------------|
A|---7-7-7---------3-3-3---------5-555555555555555---------------|
E|---------------------------------------------------------------|
                                  PM ........... 


[Chorus]

Guitar 1
e|----------------------------------------------------------------------------|
B|----------------------------------------------------------------------------|
G|------------------7777777777777777-9999999999999999-5555555555555555--------|
D|-5555555555555555-7777777777777777-9999999999999999-5555555555555555--------|
A|-5555555555555555-5555555555555555-7777777777777777-3333333333333333--------|
E|-3333333333333333-----------------------------------------------------------| 

Guitar 2
e|---------------------------------------------------------(11's not 1's)-----------------|
B|----------------------------------------------------------------------------------------|
G|-12-12-12-12-12-12-12-12-12-12-12-12-12-12-12-12-1111111111111111111111111111111--------|
D|----------------------------------------------------------------------------------------|
A|-10-10-10-10-10-10-10-10-10-10-10-10-10-10-10-10-9-9-9-9-9-9-9-9-9-9-9-9-9-9-9-9--------|
E|----------------------------------------------------------------------------------------| 

e|----------------------------------------------------------------------|
B|-8------8-------8-------8---------------------------------------------|
G|-----9------9-------9-------9---9--------9--------9--------9----------|
D|------------------------------------10-------10-------10-------10-----|
A|----------------------------------------------------------------------|
E|----------------------------------------------------------------------|

Guitar 1 
e|----------------------------------------------------------------------------|
B|----------------------------------------------------------------------------|
G|------------------7777777777777777-9999999999999999-555555555---------------|
D|-5555555555555555-7777777777777777-9999999999999999-555555555---------------|
A|-5555555555555555-5555555555555555-7777777777777777-333333333---------------|
E|-3333333333333333-----------------------------------------------------------| 

Guitar 2
e|---------------------------------------------------------(11's not 1's)-----------------|
B|----------------------------------------------------------------------------------------|
G|-12-12-12-12-12-12-12-12-12-12-12-12-12-12-12-12-1111111111111111111111111111111--------|
D|----------------------------------------------------------------------------------------|
A|-10-10-10-10-10-10-10-10-10-10-10-10-10-10-10-10-9-9-9-9-9-9-9-9-9-9-9-9-9-9-9-9--------|
E|----------------------------------------------------------------------------------------| 

e|----------------------------------------------------------------------|
B|-8------8-------8-------8---------------------------------------------|
G|-----9------9-------9-------9---9--------9--------9-------------------|
D|------------------------------------10-------10-----------------------|
A|----------------------------------------------------------------------|
E|----------------------------------------------------------------------| 


[Intro]
e|-----2-----2-----2----2----------------------------------------|
B|-----3-----3-----3----3----------------------------------------|
G|---------------------------------------------------------------|
D|--2-----2-----2----2-------------------------------------------|
A|---------------------------------------------------------------|
E|---------------------------------------------------------------| 




[Verse 2]
e|-----2-----2-----2----2--------2------2------2-----2-----------|
B|-----3-----3-----3----3--------3------3------3-----3-----------|
G|---------------------------0-------0------0-----0--------------|
D|--2-----2-----2----2-------------------------------------------|
A|---------------------------------------------------------------|
E|---------------------------------------------------------------| 

e|-----2-----2-----2------2-------2------2------2-------2--------|
B|-----3-----3-----3------3-------3------3------3-------3--------|
G|---------------------------------------------------------------| 
D|--0-----0-----0------0-----------------------------------------| x2
A|-----------------------------3------3------3------3------------|
E|---------------------------------------------------------------|


[Pre-Chorus]
e|---------------------------------------------------------------|
B|---------------------------------------------------------------|
G|---9-9-9---------5-5-5-----------------------------------------|
D|---9-9-9---------5-5-5---------5--5--5--5--5--5--x-x-x-x-------|
A|---7-7-7---------3-3-3---------5--5--5--5--5--5--x-x-x-x-------|
E|-------------------------------3--3--3--3--3--3--x-x-x-x-------|

e|---------------------------------------------------------------|
B|---------------------------------------------------------------|
G|---9-9-9---------5-5-5---------7-777777777777777---------------|
D|---9-9-9---------5-5-5---------7-777777777777777---------------|
A|---7-7-7---------3-3-3---------5-555555555555555---------------|
E|---------------------------------------------------------------|
                                  PM ........... 


[Chorus] 

Guitar 1
e|----------------------------------------------------------------------------|
B|----------------------------------------------------------------------------|
G|------------------7777777777777777-9999999999999999-5555555555555555--------|
D|-5555555555555555-7777777777777777-9999999999999999-5555555555555555--------|
A|-5555555555555555-5555555555555555-7777777777777777-3333333333333333--------|
E|-3333333333333333-----------------------------------------------------------| 

Guitar 2
e|---------------------------------------------------------(11's not 1's)-----------------|
B|----------------------------------------------------------------------------------------|
G|-12-12-12-12-12-12-12-12-12-12-12-12-12-12-12-12-1111111111111111111111111111111--------|
D|----------------------------------------------------------------------------------------|
A|-10-10-10-10-10-10-10-10-10-10-10-10-10-10-10-10-9-9-9-9-9-9-9-9-9-9-9-9-9-9-9-9--------|
E|----------------------------------------------------------------------------------------| 

e|----------------------------------------------------------------------|
B|-8------8-------8-------8---------------------------------------------|
G|-----9------9-------9-------9---9--------9--------9--------9----------|
D|------------------------------------10-------10-------10-------10-----| x3 
A|----------------------------------------------------------------------|
E|----------------------------------------------------------------------|


[Bridge] 
e|----------------------------------------------------------------------------|
B|----------------------------------------------------------------------------|
G|------------------7777777777777777-9999999999999999-5555555555555555--------|
D|-5555555555555555-7777777777777777-9999999999999999-5555555555555555--------| x4
A|-5555555555555555-5555555555555555-7777777777777777-3333333333333333--------|
E|-3333333333333333-----------------------------------------------------------| 
 PM ..................................................................     


[Chorus] 

Guitar 1
e|----------------------------------------------------------------------------|
B|----------------------------------------------------------------------------|
G|------------------7777777777777777-9999999999999999-5555555555555555--------|
D|-(Guitar 2 only)--7777777777777777-9999999999999999-5555555555555555--------|
A|------------------5555555555555555-7777777777777777-3333333333333333--------|
E|----------------------------------------------------------------------------| 

Guitar 2
e|---------------------------------------------------------(11's not 1's)-----------------|
B|----------------------------------------------------------------------------------------|
G|-12-12-12-12-12-12-12-12-12-12-12-12-12-12-12-12-1111111111111111111111111111111--------|
D|----------------------------------------------------------------------------------------|
A|-10-10-10-10-10-10-10-10-10-10-10-10-10-10-10-10-9-9-9-9-9-9-9-9-9-9-9-9-9-9-9-9--------|
E|----------------------------------------------------------------------------------------| 

e|----------------------------------------------------------------------|
B|-8------8-------8-------8---------------------------------------------|
G|-----9------9-------9-------9---9--------9--------9--------9----------|
D|------------------------------------10-------10-------10-------10-----|  
A|----------------------------------------------------------------------|
E|----------------------------------------------------------------------| 


Guitar 1
e|----------------------------------------------------------------------------|
B|----------------------------------------------------------------------------|
G|------------------7777777777777777-9999999999999999-5555555555555555--------|
D|-5555555555555555-7777777777777777-9999999999999999-5555555555555555--------|
A|-5555555555555555-5555555555555555-7777777777777777-3333333333333333--------|
E|-3333333333333333-----------------------------------------------------------| 

Guitar 2
e|---------------------------------------------------------(11's not 1's)-----------------|
B|----------------------------------------------------------------------------------------|
G|-12-12-12-12-12-12-12-12-12-12-12-12-12-12-12-12-1111111111111111111111111111111--------|
D|----------------------------------------------------------------------------------------|
A|-10-10-10-10-10-10-10-10-10-10-10-10-10-10-10-10-9-9-9-9-9-9-9-9-9-9-9-9-9-9-9-9--------|
E|----------------------------------------------------------------------------------------| 

e|----------------------------------------------------------------------|
B|-8------8-------8-------8---------------------------------------------|
G|-----9------9-------9-------9---9--------9--------9--------9----------|
D|------------------------------------10-------10-------10-------10-----| 
A|----------------------------------------------------------------------|
E|----------------------------------------------------------------------|



[Outro]

Guitar 1
e|-----------------------------------------------------------------------------|
B|-----------------------------------------------------------------------------|
G|------------------7777777777777777-9999999999999999--5555555--5555555--------|
D|-5555555555555555-7777777777777777-9999999999999999--5555555--5555555--------|
A|-5555555555555555-5555555555555555-7777777777777777--3333333--3333333--------|
E|-3333333333333333------------------------------------------------------------| 

Guitar 2
e|---------------------------------------------------------(11's not 1's)-----------------|
B|----------------------------------------------------------------------------------------|
G|-12-12-12-12-12-12-12-12-12-12-12-12-12-12-12-12-1111111111111111111111111111111--------|
D|----------------------------------------------------------------------------------------|
A|-10-10-10-10-10-10-10-10-10-10-10-10-10-10-10-10-9-9-9-9-9-9-9-9-9-9-9-9-9-9-9-9--------|
E|----------------------------------------------------------------------------------------| 

e|----------------------------------------------------------------------|
B|-8------8-------8-------8---------------------------------------------|
G|-----9------9-------9-------9---9--------9--------9--------9----------|
D|------------------------------------10-------10-------10-------10-----| Repeat x2 
A|----------------------------------------------------------------------|
E|----------------------------------------------------------------------|



"... " = Palm Mute









            
            
Suggest correction
Creating personal tab
Creating personal tab
You can edit any tab online and save it as your Personal.

You can edit, replace or remove any tab part or add personal notes – all changes will be seen only by you.

Personal tabs can be accessed anytime from any device, even offline.
Learn more »
comments
print report bad tab
guest
You may want to rate the tab now too:
select rating
Wanna post a correction for this tab? Suggest correction