Oops, an error
Loading. Please wait.

Party Song tab

version 4
version 4

Whole song

Interactive

23,510 views 36 this week
3 commentsread comments
1 2 3 4 5
x 19
add to favorites
×
Save as Personal and add changes to this tab that will be seen only by you. Learn more ›
×
You can save this tab as Personal to edit and correct it or add notes. All changes will be seen only by you. Learn more »
launch autoscroll
font size
0
reset
how to read this tab
guitar tuner
edit
Autoscroll
slow
fast
+/-
esc
set tempo
stop
                  --------PARTY SONG by blink 182---------|
                       ---------by alex f.----------------|
h- hammer
~- let it ring

just bass intro for first verse:
G-----------------------------------| x3
D---------22222222--------22222222--|
A-22222222--------44444444----------|
E-----------------------------------|

and then the fourth time you just go:

G-------------------------------------------|
D---------22222222--------22224444----------|
A-22222222--------44444444--------222222222-|
E-------------------------------------------|

then the guitar comes on the second verse:

e-----------------------------------| x3
B-----------------------------------|
G-----------------------------------|
D---------99-999-966-666-699-999-9--|
A-99-999-977-777-744-444-477-777-7--|
E-77-777-7--------------------------|

and then the fourth time you just go:

e----------------------------------------------|
B----------------------------------------------|
G----------------------------------------------|
D---------99-999-966-666-699-91111-11----------|
A-99-999-977-777-744-444-477-79-9--9-99-999-99-|
E-77-777-7---------------------------77-777-77-|

prechorus (and then i saw her standing there) part:

e--------------------------------------------|
B--------------------------------------------|
G--------------------------------------------|
D-4~~----2~h1-------2~h1------2~h1------2----|h1
A--------------2~~-------2~~-------2~~-------|
E--------------------------------------------|

(and then you'll discover this girls not the one) part:
e-------------------| x3
B-------------------|
G-------------------|
D-44444-----66666---|
A-22222-----44444---|
E-------------------|
P.M....     .....

and then the fourth time is:

e-------------|
B-------------|
G-------------|
D-44444-----6-|
A-22222-----4-|
E-------------|
P.M....     .

Chorus (some girls try too hard)part:

e-------------------------------------|
B-------------------------------------|
G-------------------------------------|
D-4-4-4--2~1~-------6-6-6--2~1~-------|
A-2-2-2-------4-4~--4-4-4-------4-2~--|
E-------------------------------------|

 ORDER OF THE SONG:
   VERSE X2
   PRECHORUS
   CHORUS
   VERSE
   PRECHORUS
   CHORUS
   ENDING CHORUS

            
            
Suggest correction
Creating personal tab
Creating personal tab
You can edit any tab online and save it as your Personal.

You can edit, replace or remove any tab part or add personal notes – all changes will be seen only by you.

Personal tabs can be accessed anytime from any device, even offline.
Learn more »
comments
print report bad tab
3 comments total.
+1 reply
fireliar90 10 Dec 23, 2006 01:41 PM

i think this is the best version

+2 reply
Tster 441 Jul 14, 2007 10:36 PM

Looks good but i haven't played it yet.

+1 reply
death eater 97 Oct 13, 2009 08:43 AM

(here we go motha ****as) Lol i love this song. PARTY AT MY PLACE!!

guest
You may want to rate the tab now too:
select rating
Wanna post a correction for this tab? Suggest correction