Oops, an error
Loading. Please wait.

Peggy Sue tab

version 5
version 5

Whole song

  • Current tabs online have the strumming intro Tom D... Show more
  • Individual picking instead of together as the other tabs.

Interactive

22 views 1 this week
no commentswrite comment
1 2 3 4 5
3 more votes to show rating
add to favorites
×
Save as Personal and add changes to this tab that will be seen only by you. Learn more ›
×
You can save this tab as Personal to edit and correct it or add notes. All changes will be seen only by you. Learn more »
launch autoscroll
font size
0
reset
how to read this tab
guitar tuner
edit
Autoscroll
slow
fast
+/-
esc
set tempo
stop
About this tab version
Current tabs online have the strumming intro Tom Delonge played live. My tab has the picked intro like it is on the Cheshire Cat album. Was this info helpful? Yes No
[Intro]
e|--------------------------------------------------------------------|
B|--------------------------------------------------------------------|
G|----6-----9-6----6-----6--------------6-----9-6----6-----6----------|
D|--7---7-7------7---7-7---7----------7---7-7------7---7-7---7--------|
A|---------------------------5p4-------------------------------4h5----|
E|--------------------------------------------------------------------|

e|--------------------------------------------------------------------|
B|--------------------------------------------------------------------|
G|------7-------7---7----------------6-----9-6----6-----6---6---------|
D|--7-7---7-7-7---7---7-7----------7---7-7------7---7-7---7-----------|
A|------------------------5p4-----------------------------------------|
E|--------------------------------------------------------------------|

e|--------------------------------------------------------------------|
B|--------------------------------------------------------------------|
G|----9-----9---7-7-----7p6----------6-----9-6---6-----6---6----------|
D|--9---9-9---7-----7-7-----7------7---7-7-----7---7-7---7---7--------|
A|--------------------------------------------------------------------|
E|--------------------------------------------------------------------|

[Verse 1]
e|------------------------------------------|
B|------------------------------------------|
G|--2-222222----------7-777777--------------|
D|--2-222222-4-444444-7-777777--2---4---2---|   (x4)
A|--0-000000-4-444444-5-555555--2-0-4-0-2---|
E|-----------2-222222-----------0-0-2-0-0---|
      __pm__   __pm__   __pm__

[Chorus]
e|--------------------------------------------------------------------------|
B|--------------------------------------------------------------------------|
G|--7-777777-7-777777-------------------7-777777-7-777777----------9-999999-|
D|--7-777777-7-777777-7-777777-7-777777-x-xxxxxx-x-xxxxxx-7-777777-9-999999-|     (x2)
A|--5-555555-5-555555-7-777777-7-777777-5-555555-5-555555-7-777777-7-777777-|
E|--------------------5-555555-5-555555-------------------5-555555----------|

e|-------|
B|-------|
G|-------|
D|--7----|   (play and let it ring out before Interlude and at the end.)
A|--x----|
E|--5----|

[Instrumental]
e|--------------------------------------------------------------------|
B|--------------------------------------------------------------------|
G|----6-----9-6----6-----6--------------6-----9-6----6-----6----------|
D|--7---7-7------7---7-7---7----------7---7-7------7---7-7---7--------|
A|---------------------------5p4-------------------------------4h5----|
E|--------------------------------------------------------------------|

e|--------------------------------------------------------------------|
B|--------------------------------------------------------------------|
G|------7-------7---7----------------6-----9-6----6-----6---6---------|
D|--7-7---7-7-7---7---7-7----------7---7-7------7---7-7---7-----------|
A|------------------------5p4-----------------------------------------|
E|--------------------------------------------------------------------|

e|--------------------------------------------------------------------|
B|--------------------------------------------------------------------|
G|----9-----9---7-7-----7p6----------6-----9-6---6-----6---6----------|
D|--9---9-9---7-----7-7-----7------7---7-7-----7---7-7---7---7--------|
A|--------------------------------------------------------------------|
E|--------------------------------------------------------------------|

[Verse 1]
e|------------------------------------------|
B|------------------------------------------|
G|--2-222222----------7-777777--------------|
D|--2-222222-4-444444-7-777777--2---4---2---|   (x4)
A|--0-000000-4-444444-5-555555--2-0-4-0-2---|
E|-----------2-222222-----------0-0-2-0-0---|
      __pm__   __pm__   __pm__

[Chorus]
e|--------------------------------------------------------------------------|
B|--------------------------------------------------------------------------|
G|--7-777777-7-777777-------------------7-777777-7-777777----------9-999999-|
D|--7-777777-7-777777-7-777777-7-777777-x-xxxxxx-x-xxxxxx-7-777777-9-999999-|     (x2)
A|--5-555555-5-555555-7-777777-7-777777-5-555555-5-555555-7-777777-7-777777-|
E|--------------------5-555555-5-555555-------------------5-555555----------|

e|-------|
B|-------|
G|-------|
D|--7----|   (play and let it ring out before Interlude and at the end.)
A|--x----|
E|--5----|

[Interlude]
e|-------------------------------------------------------|
B|-------------------------------------------------------|
G|--6-6--7-7--9--6-6--7-7--9--9-9-9--7-6-7--7-7--7-7-7-7-|
D|--7-7--7-7--7--7-7--7-7--7--7-7-7--7-7-7--7-7--7-7-7-7-|     (x4)
A|-------------------------------------------------------|
E|-------------------------------------------------------|

[Chorus]
e|--------------------------------------------------------------------------|
B|--------------------------------------------------------------------------|
G|--7-777777-7-777777-------------------7-777777-7-777777----------9-999999-|
D|--7-777777-7-777777-7-777777-7-777777-x-xxxxxx-x-xxxxxx-7-777777-9-999999-|     (x2)
A|--5-555555-5-555555-7-777777-7-777777-5-555555-5-555555-7-777777-7-777777-|
E|--------------------5-555555-5-555555-------------------5-555555----------|

e|-------|
B|-------|
G|-------|
D|--7----|   (play and let it ring out before Interlude and at the end.)
A|--x----|
E|--5----|



************************************

| h  Hammer-on
| p  Pull-off
| x  Dead note

************************************

            
            
Suggest correction
Creating personal tab
Creating personal tab
You can edit any tab online and save it as your Personal.

You can edit, replace or remove any tab part or add personal notes – all changes will be seen only by you.

Personal tabs can be accessed anytime from any device, even offline.
Learn more »
Give kudos to tab author, rate the tab!
1 2 3 4 5
comments
print report bad tab
guest
You may want to rate the tab now too:
select rating
Wanna post a correction for this tab? Suggest correction