Oops, an error
Loading. Please wait.
We have an official San Diego tab made by UG professional guitarists. Check out the tab »
×
2,536 views 27 this week
no commentswrite comment
1 2 3 4 5
x 3
add to favorites
×
Save as Personal and add changes to this tab that will be seen only by you. Learn more ›
×
You can save this tab as Personal to edit and correct it or add notes. All changes will be seen only by you. Learn more »
launch autoscroll
font size
0
reset
guitar tuner
edit
Autoscroll
slow
fast
+/-
esc
set tempo
stop
[Intro]

G|---------------------------------------------------------------------------|
D|---------------------------------EMPTY-------------------------------------|
A|---------------------------------------------------------------------------|
E|---------------------------------------------------------------------------|

[Verse 1]

G|---------------------------------------------------------------------------|
D|---------------------------------------------------------------------------|
A|-----------------7---------------------------------------------------------|
E|--------------5-----5---------3--3-----------------------------------------|

G|---------------------------------------------------------------------------|
D|---------------------------------------------------------------------------|
A|-----------------3---------------------------------------------------------| X4
E|--------------1-----1---------1--1-----------------1-----3-----------------|


[Pre-Chorus 1]

G|---------------------------------------------------------------------------|
D|---------------------------------------------------------------------------|
A|---------------------------------------------------------------------------|
E|----0--0--0--0--0--0--0--0--1--1--1--1--1--1--1--1--3----------------------|


[Chorus 1]

G|---------------------------------------------------------------------------|
D|---------------------------------------------------------------------------|
A|----0--0--0--0--0--0--0--0-------------------------------------------------|
E|----------------------------1--1--1--1--1--1--1--1-------------------------|

G|---------------------------------------------------------------------------|
D|---------------------------------------------------------------------------|
A|----3--3--3--3--3--3--3--3-------------------------------------------------|
E|----------------------------3--3--3--3--3--3--3--3-------------------------|

G|---------------------------------------------------------------------------|
D|---------------------------------------------------------------------------|
A|----0--0--0--0--0--0--0--0-------------------------------------------------|
E|----------------------------1--1--1--1--1--1--1--1-------------------------|

G|---------------------------------------------------------------------------|
D|---------------------------------------------------------------------------|
A|----3--3--3--3--3--3--3--3-------------------------------------------------|
E|----------------------------3--3--3--3--3--3--3--3-------------------------|

G|---------------------------------------------------------------------------|
D|---------------------------------------------------------------------------|
A|----0-----0-----------------3-----3-----3--3--3--3-------------------------|
E|----------------1-----1-------------------------------3----3----3--3--3--3-|

G|---------------------------------------------------------------------------|
D|---------------------------------------------------------------------------|
A|----0-----0-----------------3-----3-----3--3--3--3-------------------------|
E|----------------1-----1-------------------------------3----3----3--3--3--3-|

[Verse 2]

G|---------------------------------------------------------------------------|
D|---------------------------------------------------------------------------|
A|---------------------------------7-----------------------------------------|
E|----3-----3-----3--3--3--3----5-----5--5--5--5--5--5-----------------------|

G|---------------------------------------------------------------------------|
D|---------------------------------------------------------------------------|
A|---------------------------------------------------------------------------|
E|----3--3--3--3--3--3--3--3----1--1--1--1--1--1--1--1-----------------------|

G|---------------------------------------------------------------------------|
D|---------------------------------------------------------------------------|
A|---------------------------------7-----------------------------------------|
E|----1--1--1--1--1--1--3--3----5-----5--5--5--5--5--5-----------------------|

G|---------------------------------------------------------------------------|
D|---------------------------------------------------------------------------|
A|---------------------------------------------------------------------------|
E|----3--3--3--3--3--3--3--3----1--1--1--1--1--1--1--1-----------------------|

G|---------------------------------------------------------------------------|
D|---------------------------------------------------------------------------|
A|---------------------------------7-----------------------------------------|
E|----1--1--1--1--1--1--3--3----5-----5--5--5--5--5--5-----------------------|

G|---------------------------------------------------------------------------|
D|---------------------------------------------------------------------------|
A|---------------------------------------------------------------------------|
E|----3--3--3--3--3--3--3--3----1--1--1--1--1--1--1--1-----------------------|

G|---------------------------------------------------------------------------|
D|---------------------------------------------------------------------------|
A|---------------------------------7-----------------------------------------|
E|----1--1--1--1--1--1--3--3----5-----5--5--5--5--5--5-----------------------|

G|---------------------------------------------------------------------------|
D|---------------------------------------------------------------------------|
A|------------------------------8--8--8--8--8--8--8--8-----------------------|
E|----3--3--3--3--3--3--3--3-------------------------------------------------|

[Pre-Chorus 2]

G|---------------------------------------------------------------------------|
D|---------------------------------------------------------------------------|
A|----8--8--8--7--8--10--8--7------------------------------------------------|
E|------------------------------0--0--0--0--0--0--0--0-----------------------|

G|---------------------------------------------------------------------------|
D|---------------------------------------------------------------------------|
A|---------------------------------------------------------------------------|
E|----1--1--1--1--1--1--1--1----3--3--3--3--3--3--3--3-----------------------|

[Chorus 2]

G|---------------------------------------------------------------------------|
D|---------------------------------------------------------------------------|
A|------------------------------0--0--0--0--0--0--0--0-----------------------|
E|----3--3--3--3--3--3--3--3-------------------------------------------------|

G|---------------------------------------------------------------------------|
D|---------------------------------------------------------------------------|
A|------------------------------3--3--3--3--3--3--3--3-----------------------|
E|----1--1--1--1--1--1--1--1-------------------------------------------------|

G|---------------------------------------------------------------------------|
D|---------------------------------------------------------------------------|
A|------------------------------0--0--0--0--0--0--0--0-----------------------|
E|----3--3--3--3--3--3--3--3-------------------------------------------------|

G|---------------------------------------------------------------------------|
D|---------------------------------------------------------------------------|
A|------------------------------3--3--3--3--3--3--3--3-----------------------|
E|----1--1--1--1--1--1--1--1-------------------------------------------------|

G|---------------------------------------------------------------------------|
D|---------------------------------------------------------------------------|
A|------------------------------0-----0--------------------------------------|
E|----3--3--3--3--3--3--3--3----------------1-----1--------------------------|

G|---------------------------------------------------------------------------|
D|---------------------------------------------------------------------------|
A|----3-----3-----3--3--3--3-------------------------------------------------|
E|------------------------------3----3----3--3--3--3-------------------------|

G|---------------------------------------------------------------------------|
D|---------------------------------------------------------------------------|
A|----0-----0-----------------3-----3-----3--3--3--3-------------------------|
E|----------------1-----1-------------------------------3----3----3--3--3--3-|

[Bridge]

G|------------12---------12------12-------------12-------------12------------|
D|----10--10---------10------10---------10--10---------10--10----------------|
A|---------------------------------------------------------------------------|
E|---------------------------------------------------------------------------|

G|------------12---------12------12-------------12-------------12------------|
D|---------------------------------------------------------------------------|
A|----12--12---------12------12---------12--12---------12--12----------------|
E|---------------------------------------------------------------------------|

G|------------12---------12------12-------------12-------------12------------|
D|---------------------------------------------------------------------------|
A|----10--10---------10------10---------10--10---------10--10----------------|
E|---------------------------------------------------------------------------|

G|---------------------------------------------------------------------------|
D|----------10--------10-----10-------------12----------12------12-----------|
A|----8--8------8--8------8---------10--10------10--10------10---------------|
E|---------------------------------------------------------------------------|

G|------------12---------12------12-------------12-------------12------------|
D|----10--10---------10------10---------10--10---------10--10----------------|
A|---------------------------------------------------------------------------|
E|---------------------------------------------------------------------------|

G|------------12---------12------12-------------12-------------12------------|
D|---------------------------------------------------------------------------|
A|----12--12---------12------12---------12--12---------12--12----------------|
E|---------------------------------------------------------------------------|

G|---------------------------------------------------------------------------|
D|---------------------------------------------------------------------------|
A|---------------------------------------------------------------------------|
E|----1--1--1--1--1--1--1--1----3--3--3--3--3--3--3--3-----------------------|

[Pre-Chorus 3]

G|---------------------------------------------------------------------------|
D|---------------------------------------------------------------------------|
A|----0--0--0--0--0--0--0--0-------------------------------------------------|
E|----------------------------1--1--1--1--1--1--1--1-------------------------|

G|---------------------------------------------------------------------------|
D|---------------------------------------------------------------------------|
A|----3--3--3--3--3--3--3--3-------------------------------------------------|
E|----------------------------3--3--3--3--3--3--3--3-------------------------|

G|---------------------------------------------------------------------------|
D|---------------------------------------------------------------------------|
A|----0--0--0--0--0--0--0--0-------------------------------------------------|
E|----------------------------1--1--1--1--1--1--1--1-------------------------|

G|---------------------------------------------------------------------------|
D|---------------------------------------------------------------------------|
A|----3--3--3--3--3--3--3--3-------------------------------------------------|
E|----------------------------3--3--3--3--3--3--3--3-------------------------|

[Chorus 3]

G|---------------------------------------------------------------------------|
D|---------------------------------------------------------------------------|
A|----0--0--0--0--0--0--0--0-------------------------------------------------|
E|----------------------------1--1--1--1--1--1--1--1-------------------------|

G|---------------------------------------------------------------------------|
D|---------------------------------------------------------------------------|
A|----3--3--3--3--3--3--3--3-------------------------------------------------|
E|----------------------------3--3--3--3--3--3--3--3-------------------------|

G|---------------------------------------------------------------------------|
D|---------------------------------------------------------------------------|
A|----0--0--0--0--0--0--0--0-------------------------------------------------|
E|----------------------------1--1--1--1--1--1--1--1-------------------------|

G|---------------------------------------------------------------------------|
D|---------------------------------------------------------------------------|
A|----3--3--3--3--3--3--3--3-------------------------------------------------|
E|----------------------------3--3--3--3--3--3--3--3-------------------------|

G|---------------------------------------------------------------------------|
D|---------------------------------------------------------------------------|
A|----0-----0-----------------3-----3-----3--3--3--3-------------------------|
E|----------------1-----1-------------------------------3----3----3--3--3--3-|

G|---------------------------------------------------------------------------|
D|---------------------------------------------------------------------------|
A|----0-----0-----------------3-----3-----3--3--3--3-------------------------|
E|----------------1-----1-------------------------------3----3----3--3--3--3-|

G|---------------------------------------------------------------------------|
D|---------------------------------------------------------------------------|
A|-----------------7---------------------------------------------------------|
E|--------------5-----5---------3--3-----------------------------------------|

G|---------------------------------------------------------------------------|
D|---------------------------------------------------------------------------|
A|-----------------3---------------------------------------------------------|
E|--------------1-----1---------1--1-----------------1-----3-----------------|

G|---------------------------------------------------------------------------|
D|---------------------------------------------------------------------------|
A|-----------------7---------------------------------------------------------|
E|--------------5-----5---------3--3-----------------------------------------|

G|---------------------------------------------------------------------------|
D|---------------------------------------------------------------------------|
A|-----------------3---------------------------------------------------------|
E|--------------1-----1---------1--1-----------------------------------------|
************************************

| x   Dead note
| g   Grace note
| (n) Ghost note
| h   Hammer-on
| p   Pull-off
| r   Release
| >   Accented note
| t   Tapping
| b   Bend
| br  Bend release
| pb  Pre-bend
| pbr Pre-bend release
| /   Slide up
| \   Slide down
| ~   Vibrato
| s   Slap
| P   Pop
| PM  Palm mute
| TR  Trill
| N   Tremolo

************************************


G|---------------------------------------------------------------------------|
D|---------------------------------------------------------------------------|
A|---------------------------------------------------------------------------|
E|---------------------------------------------------------------------------|

            
            
Suggest correction
Creating personal tab
Creating personal tab
You can edit any tab online and save it as your Personal.

You can edit, replace or remove any tab part or add personal notes – all changes will be seen only by you.

Personal tabs can be accessed anytime from any device, even offline.
Learn more »
Give kudos to tab author, rate the tab!
1 2 3 4 5
comments
print report bad tab
guest
Wanna post a correction for this tab? Suggest correction