Oops, an error
Loading. Please wait.
We have an official San Diego tab made by UG professional guitarists. Check out the tab »
×

San Diego tab

version 1
version 1

Whole song

  • Learned between a mixture of tabs, by ear, and seeing how the band plays it.

Interactive

14,819 views 63 this week
2 commentsread comments
1 2 3 4 5
x 18
add to favorites
×
Save as Personal and add changes to this tab that will be seen only by you. Learn more ›
×
You can save this tab as Personal to edit and correct it or add notes. All changes will be seen only by you. Learn more »
launch autoscroll
font size
0
reset
how to read this tab
guitar tuner
edit
Autoscroll
slow
fast
+/-
esc
set tempo
stop
Hey! This is my first ever tab so sorry if i screw anything up.

San Diego
Blink-182

standard tuning
no capo

  
Intro
e---------------------------------------------------------|
B------1------1------1------1------1------1------1--------|
G------2------2------2------2------2------2------2--------|
D------2------2------2------2------2------2------2--------|
A--0-0----0-0---------------------------------------------|
E----------------3-3----3-3----1-1----1-1----1-1----1-1h3-| 

verse
e---------------------------------------------------------|
B------1------1------1------1------1------1------1--------|
G------2------2------2------2------2------2------2--------|
D------2------2------2------2------2------2------2--------|
A--0-0----0-0---------------------------------------------|
E----------------3-3----3-3----1-1----1-1----1-1----1-1h3-| x4

pre-chorus "I can't sleep" palm muted except for last chord that should ring out
e--------------------------------------|
B--------------------------------------|
G--------------------------------------|
D--2-2-2-2-2-2-2-2-3-3-3-3-3-3-3-3-5---|
A--2-2-2-2-2-2-2-2-3-3-3-3-3-3-3-3-5---|
E--0-0-0-0-0-0-0-0-1-1-1-1-1-1-1-1-3---|

chorus
e------------------------|-----------------------|
B------------------------|-----------------------|
G--2-2-2-2-2-------------|-5-5-5-5-5-------------|
D--2-2-2-2-2-3-3-3-3-3-3-|-5-5-5-5-5-5-5-5-5-5-5-|
A--0-0-0-0-0-3-3-3-3-3-3-|-3-3-3-3-3-5-5-5-5-5-5-|
E------------1-1-1-1-1-1-|-----------3-3-3-3-3-3-| X2
   1  +  2  +  3  +  4  +  1  +  2  +  3  +  4  +
e------------------------|-----------------------|
B------------------------|-----------------------|
G---2-2------------------|-5-5-5-5-5-------------|
D---2-2---------3-3------|-5-5-5-5-5-5-5-5-5-5-5-|
A---0-0---------3-3------|-3-3-3-3-3-5-5-5-5-5-5-|
E---------------1-1------|-----------3-3-3-3-3-3-| x2
   1  +  2  +  3  +  4  +  1  +  2  +  3  +  4  +

verse

pre-chorus (last chord palm muted)

chorus

bridge
e------------------------------------------------------------------|
B------------------------------------------------------------------|
G--5-5-5-5-5-5-5-5-2-2-2-2-2-2-2-2---------------------------------|
D--5-5-5-5-5-5-5-5-2-2-2-2-2-2-2-2-3-3-3-3-3-3-3-3-5-5-5-5-5-5-5-5-|
A--3-3-3-3-3-3-3-3-0-0-0-0-0-0-0-0-3-3-3-3-3-3-3-3-5-5-5-5-5-5-5-5-|
E----------------------------------1-1-1-1-1-1-1-1-3-3-3-3-3-3-3-3-| x2

interlude
e------------------------|-----------------------|
B------------------------|-----------------------|
G--2-2-2-2-2-3-3-3-3-3-3-|-5-5-5-5-5-------------|
D--2-2-2-2-2-3-3-3-3-3-3-|-5-5-5-5-5-5-5-5-5-5-5-|
A--0-0-0-0-0-3-3-3-3-3-3-|-3-3-3-3-3-5-5-5-5-5-5-|
E------------1-1-1-1-1-1-|-----------3-3-3-3-3-3-| x2

chorus

outro
e---------------------------------------------------------|
B------1------1------1------1------1------1------1--------|
G------2------2------2------2------2------2------2--------|
D------2------2------2------2------2------2------2--------|
A--0-0----0-0---------------------------------------------|
E----------------3-3----3-3----1-1----1-1----1-1----1-1h3-|

e---------------------------------------------------------|
B------1------1------1------1------1------1------1--------|
G------2------2------2------2------2------2------2--------|
D------2------2------2------2------2------2------2--------|
A--0-0----0-0---------------------------------------------|
E----------------3-3----3-3----1-1----1-1----1-1----------|

Let the last chord ring out at the end


Ok i hope this tab helped you.  If you liked it then give it a good rating
and if you didnt like it then give it a good rating. Thank you!




            
            
Suggest correction
Creating personal tab
Creating personal tab
You can edit any tab online and save it as your Personal.

You can edit, replace or remove any tab part or add personal notes – all changes will be seen only by you.

Personal tabs can be accessed anytime from any device, even offline.
Learn more »
comments
print report bad tab
2 comments total.
+3 reply
Watty42 44 Jul 10, 2016 06:38 PM

Instead of coming to an Am after every 2 notes in the intro, i think the 3rd hits should just be like

e------0------0------0------0------0------0------0--------|
B------1------1------1------1------1------1------1--------|
G------0------0------0------0------0------0------0--------|
D---------------------------------------------------------|
A--0-0----0-0---------------------------------------------|
E----------------3-3----3-3----1-1----1-1----1-1----1-1h3-|

and so on. I find it give it that proper sounding shine that the song displays throughout the verses. Good to see a tab up for this already though! 4 Stars

0 reply
Goat14 10 Aug 26, 2016 11:35 AM

Dope tab brother

guest
Wanna post a correction for this tab? Suggest correction