Oops, an error
Loading. Please wait.
We have an official San Diego tab made by UG professional guitarists. Check out the tab »
×

San Diego tab

version 2
version 2

Whole song

  • Learned between a mixture of tabs, by ear, and seeing how the band plays it.

Interactive

1,696 views 18 this week
no commentswrite comment
1 2 3 4 5
1 last vote to show rating
add to favorites
×
Save as Personal and add changes to this tab that will be seen only by you. Learn more ›
×
You can save this tab as Personal to edit and correct it or add notes. All changes will be seen only by you. Learn more »
launch autoscroll
font size
0
reset
how to read this tab
guitar tuner
edit
Autoscroll
slow
fast
+/-
esc
set tempo
stop
Author
Difficulty
About this tab version
Learned between a mixture of tabs, by ear, and seeing how the band plays it. Was this info helpful? Yes No
Blink-182: San Diego by Cody Chapman
My 3rd uploaded tab, this song may be trickier than it sounds
Learned this between a mixture of by ear, other tabs, and just
Plain winging it..

Video Tutorial:https://youtu.be/ukLNKsEKOVk

Please Rate!


[Intro] [Same As Verse]

e|----------0-----0-----0----0-----0---0----0--------------------------------|
B|----------1-----1-----1----1-----1---1----1--------------------------------|
G|---------------------------------------------------------------------------|
D|---------------------------------------------------------------------------|
A|------0-0----0-0-----------------------------------------------------------|
E|-------------------3-3--3-3--1-1--1-1--1-1--1/3----------------------------|


[Pre Chorus 1] (I can't sleep, cause what if i dream...)

e|---------------------------------------------------------------------------|
B|---------------------------------------------------------------------------|
G|---------------------------------------------------------------------------|
D|---2-2-2-2-2-2-2-2-3-3-3-3-3-3-3-3-3-5-------------------------------------|
A|---2-2-2-2-2-2-2-2-3-3-3-3-3-3-3-3-3-5-------------------------------------|
E|---0-0-0-0-0-0-0-0-1-1-1-1-1-1-1-1-1-3-------------------------------------|

[Chorus] (San Diego, we bought a one-way ticket...)

e|---------------------------------------------------------------------------|
B|---------------------------------------------------------------------------|
G|9-9-9-9-9-9-9-9--10-10-10-10-10---9-9-9-9-9-9-9-9-7-7-7-7-7-7-7-7----------|
D|x-x-x-x-x-x-x-x--x-x-x-x-x-x-x-x--x-x-x-x-x-x-x-x-x-x-x-x-x-x-x-x-----(x4)-|
A|7-7-7-7-7-7-7-7--8-8-8-8-8-8-8-8--7-7-7-7-7-7-7-7-5-5-5-5-5-5-5-5----------|
E|---------------------------------------------------------------------------|

e|---------------------------------------------------------------------------|
B|---------------------------------------------------------------------------|
G|9-9-x-x-x-x-10-10-x-x-x-9-9-9-9--------------------------------------------|
D|x-x-x-x-x-x-x-x-x-x-x-x-x-x-x-x-9-9-9-9-------------(x2)-------------------|
A|7-7-x-x-x-x-8-8-x-x-x-x-7-7-7-7-x-x-x-x------------------------------------|
E|--------------------------------7-7-7-7------------------------------------|

[Verse 2] (Abandon houses with the lights on....)


e|----------0-----0-----0----0-----0---0----0--------------------------------|
B|----------1-----1-----1----1-----1---1----1--------------------------------|
G|---------------------------------------------------------------------------|
D|---------------------------------------------------------------------------|
A|------0-0----0-0-----------------------------------------------------------|
E|-------------------3-3--3-3--1-1--1-1--1-1--1/3----------------------------|

[Pre Chorus 2] (I can't sleep, cause what if i dream...)

e|---------------------------------------------------------------------------|
B|---------------------------------------------------------------------------|
G|---------------------------------------------------------------------------|
D|---2-2-2-2-2-2-2-2-3-3-3-3-3-3-3-3-3-5-5-5-5-5-5-5-5-----------------------|
A|---2-2-2-2-2-2-2-2-3-3-3-3-3-3-3-3-3-5-5-5-5-5-5-5-5-----------------------|
E|---0-0-0-0-0-0-0-0-1-1-1-1-1-1-1-1-1-3-3-3-3-3-3-3-3-----------------------|

[Chorus]

e|---------------------------------------------------------------------------|
B|---------------------------------------------------------------------------|
G|9-9-9-9-9-9-9-9--10-10-10-10-10---9-9-9-9-9-9-9-9-7-7-7-7-7-7-7-7----------|
D|x-x-x-x-x-x-x-x--x-x-x-x-x-x-x-x--x-x-x-x-x-x-x-x-x-x-x-x-x-x-x-x-----(x4)-|
A|7-7-7-7-7-7-7-7--8-8-8-8-8-8-8-8--7-7-7-7-7-7-7-7-5-5-5-5-5-5-5-5----------|
E|---------------------------------------------------------------------------|

e|---------------------------------------------------------------------------|
B|---------------------------------------------------------------------------|
G|9-9-x-x-x-x-10-10-x-x-x-9-9-9-9--------------------------------------------|
D|x-x-x-x-x-x-x-x-x-x-x-x-x-x-x-x-9-9-9-9-------------(x2)-------------------|
A|7-7-x-x-x-x-8-8-x-x-x-x-7-7-7-7-x-x-x-x------------------------------------|
E|--------------------------------7-7-7-7------------------------------------|


[Bridge] (I never wanted to hear...)

e|------3-------3-------3-------3-------3------------3-----------------------|
B|1-1-1----1-1-1---1-1-1---1-1-1--1-1-1---------1-1-1------------------------|
G|---------------------------------------------------------------------------|
D|---------------------------------------------------------------------------|
A|---------------------------------------------------------------------------|
E|---------------------------------------------------------------------------|

[Bridge Pt. 2] (Like the ocean blue...)
e|---------------------------------------------------------------------------|
B|---------------------------------------------------------------------------|
G|9-9-9-9-9-9-9-9--10-10-10-10-10---9-9-9-9-9-9-9-9-7-7-7-7-7-7-7-7----------|
D|x-x-x-x-x-x-x-x--x-x-x-x-x-x-x-x--x-x-x-x-x-x-x-x-x-x-x-x-x-x-x-x----------|
A|7-7-7-7-7-7-7-7--8-8-8-8-8-8-8-8--7-7-7-7-7-7-7-7-5-5-5-5-5-5-5-5----------|
E|---------------------------------------------------------------------------|

[Chorus]

e|---------------------------------------------------------------------------|
B|---------------------------------------------------------------------------|
G|9-9-9-9-9-9-9-9--10-10-10-10-10---9-9-9-9-9-9-9-9-7-7-7-7-7-7-7-7----------|
D|x-x-x-x-x-x-x-x--x-x-x-x-x-x-x-x--x-x-x-x-x-x-x-x-x-x-x-x-x-x-x-x-----(x4)-|
A|7-7-7-7-7-7-7-7--8-8-8-8-8-8-8-8--7-7-7-7-7-7-7-7-5-5-5-5-5-5-5-5----------|
E|---------------------------------------------------------------------------|

e|---------------------------------------------------------------------------|
B|---------------------------------------------------------------------------|
G|9-9-x-x-x-x-10-10-x-x-x-9-9-9-9--------------------------------------------|
D|x-x-x-x-x-x-x-x-x-x-x-x-x-x-x-x-9-9-9-9-------------(x2)-------------------|
A|7-7-x-x-x-x-8-8-x-x-x-x-7-7-7-7-x-x-x-x------------------------------------|
E|--------------------------------7-7-7-7------------------------------------|

[Outro]
e|----------0-----0-----0----0-----0---0----0--------------------------------|
B|----------1-----1-----1----1-----1---1----1--------------------------------|
G|---------------------------------------------------------------------------|
D|-----------------------------------------------------------(x2)------------|
A|------0-0----0-0-----------------------------------------------------------|
E|-------------------3-3--3-3--1-1--1-1--1-1--1/3----------------------------|


************************************

| x   Dead note
| g   Grace note
| (n) Ghost note
| h   Hammer-on
| p   Pull-off
| r   Release
| >   Accented note
| t   Tapping
| b   Bend
| br  Bend release
| pb  Pre-bend
| pbr Pre-bend release
| /   Slide up
| \   Slide down
| ~   Vibrato
| s   Slap
| P   Pop
| PM  Palm mute
| TR  Trill
| N   Tremolo

************************************

            
            
Suggest correction
Creating personal tab
Creating personal tab
You can edit any tab online and save it as your Personal.

You can edit, replace or remove any tab part or add personal notes – all changes will be seen only by you.

Personal tabs can be accessed anytime from any device, even offline.
Learn more »
Give kudos to tab author, rate the tab!
1 2 3 4 5
comments
print report bad tab
guest
You may want to rate the tab now too:
select rating
Wanna post a correction for this tab? Suggest correction