Oops, an error
Loading. Please wait.
We have an official Shut Up tab made by UG professional guitarists. Check out the tab »
×
700 views 1 this week
1 commentread comment
1 2 3 4 5
x 3
add to favorites
×
Save as Personal and add changes to this tab that will be seen only by you. Learn more ›
×
You can save this tab as Personal to edit and correct it or add notes. All changes will be seen only by you. Learn more »
launch autoscroll
font size
0
reset
how to read this tab
guitar tuner
edit
Autoscroll
slow
fast
+/-
esc
set tempo
stop
Blink 182- Shut up 

Tabbed by Scott McGrath 

Intro- Repeat a few times except for bit in bracket 

E----------------------------------------------------------------------- 
B-----------------------------5------5---------5---------5---------- 
G—(2-2-2-2-2-2-2-2)-----2---2--2---2----2----2----2---2--------- 
D----------------------------------------------------------------------- 
A-----------------------0------------------4---------5--------0------ 
E----------------------------------------------------------------------- 
Bass part for a while, then intro for a bit again, then… 
E----------------------------------------------------------------------- 
B----------------------------------------------------------------------- 
G----------------6---------7---------------------------------------------- 
D----7----------6---------7------------------------------------------------ 
A----7----------4---x4---5---x4------------------------------------------ 
E----5—x8----------------------------------------------------------------- 
I’ll never ask permission of you…… 
E----------------------------------------------------------------------- 
B----------------------------------------------------------------------- 
G------7------------------14---------------------------------------------- 
D------7-------7----------14------------------------------------------------ 
A------5-x3---7----------12—x3----------------------------------------- 

E---------------5—x3------------------------------------------------------ 
I’m not coming home….. Repeat a few times. 
E----------------------------------------------------------------------- 
B----------------------------------------------------------------------- 
G----------------------------------------------------------------------- 
D------9-------7---------------------------------------------------------- 
A------9-------7---------------------------------------------------------- 
E------7-x8---5-x8------------------------------------------------------ 
Put other parts where necessary, then…. 
I’ll run away….. 
E----------------------------------------------------------------------- 
B----------------------------------------------------------------------- 
G-------9----------11---------7--------------------------------------- 
D-------9----------11---------7--------------------------------------- 
A-------7—x9----9---x4----5—x3--------------------------------- 
E----------------------------------------------------------------------- 
Solo bit 
E----------------------------------------------------------------------- 
B----------------------------------------------------------------------- 
G----------------------------------------------------------------------- 
D---7-x8---6-x4---4-x4---11-x8---9-x4---7-x12---6-x4-------- 
A----------------------------------------------------------------------- 
E----------------------------------------------------------------------- 

----------------------------------------------------------------------- 
----------------------------------------------------------------------- 
----------------------------------------------------------------------- 
---4-x4---11-x8---9-x4---12-x4---------------------------------- 
----------------------------------------------------------------------- 

Then repeat other parts until song ends.

            
            
Suggest correction
Creating personal tab
Creating personal tab
You can edit any tab online and save it as your Personal.

You can edit, replace or remove any tab part or add personal notes – all changes will be seen only by you.

Personal tabs can be accessed anytime from any device, even offline.
Learn more »
Give kudos to tab author, rate the tab!
1 2 3 4 5
comments
print report bad tab
1 comment total.
0 reply
sparkster778 0 Mar 10, 2002 07:00 PM

whats with your intro?

guest
Wanna post a correction for this tab? Suggest correction