Oops, an error
Loading. Please wait.
We have an official Shut Up tab made by UG professional guitarists. Check out the tab »
×
13,893 views 1 this week
10 commentsread comments
1 2 3 4 5
x 11
add to favorites
×
Save as Personal and add changes to this tab that will be seen only by you. Learn more ›
×
You can save this tab as Personal to edit and correct it or add notes. All changes will be seen only by you. Learn more »
launch autoscroll
font size
0
reset
how to read this tab
guitar tuner
edit
Autoscroll
slow
fast
+/-
esc
set tempo
stop
Author
-----------------------------------------------------
		Shut Up - Blink 182
-----------------------------------------------------

Tabed By: J.D. Norwood (j_d_norwood12@hotmail.com)
            
			intro
	part 1			part 2
e|-----------------|---------------------------------|
B|-2-2-2-2-2-2-2-2-|-----5-------5-------5-------5---|
G|-----------------|---2---2---2---2---2---2---2---2-|
D|-----------------|-------------------------0-------|
A|-----------------|-0-------0-------4---------------|
E|-----------------|---------------------------------|

			thingy 1
e|---------------------------------------------------------|
B|---------------------------------------------------------|
G|-------------------22222222------------------------------|
D|-77777777-22222222---------------------------------------|
A|-55555555-00000000---------------------------------------|
E|---------------------------------------------------------|

			thingy 2
e|---------------------------------------------------------|
B|---------------------------------------------------------|
G|---------------------------------------------------------|
D|-44444444-22222222---------------------------------------|
A|-22222222-00000000---------------------------------------|
E|---------------------------------------------------------|

			thingy 3
e|---------------------------------------------------------|
B|---------------------------------------------------------|
G|---------------------------------------------------------|
D|-22222222-6666-7777--------------------------------------|
A|-00000000-4444-5555--------------------------------------|
E|---------------------------------------------------------|

			thingy 4
e|---------------------------------------------------------|
B|---------------------------------------------------------|
G|---------------------------------------------------------|
D|-44444444-6666-7777--------------------------------------|
A|-22222222-4444-5555--------------------------------------|
E|---------------------------------------------------------|

			solo (that says 11 not 1)
e|---------------------------------------------------------|
B|---------------------------------------------------------|
G|---------------------------------------------------------|
D|-77777777-6666-4444-1111111111111111-9999-7777-----------|
A|---------------------------------------------------------|
E|---------------------------------------------------------|

		outro (part in brackets last time only)
e|---------------------------------------------------------|
B|---------------------------------------------------------|
G|---------------------------------------------------------|
D|-22222222-6666-7777-(2)----------------------------------|
A|-00000000-4444-5555-(0)----------------------------------|
E|---------------------------------------------------------|

	order

intro part 1 x1
intro part 2 x4
intro part 2 x3
thingy 1 x2
thingy 2 x2
thingy 3 x4
thingy 1 x2
thingy 2 x2
thingy 4 x6
solo x2
thingy 1 x2
thingy 2 x2
outro x4

============================================================

            
            
Suggest correction
Creating personal tab
Creating personal tab
You can edit any tab online and save it as your Personal.

You can edit, replace or remove any tab part or add personal notes – all changes will be seen only by you.

Personal tabs can be accessed anytime from any device, even offline.
Learn more »
comments
print report bad tab
10 comments total. Showing first comments.
0 reply
leviathon90 30 Apr 09, 2002 08:00 PM

great tab man sounds great

0 reply
Kewl dude 140 Apr 12, 2002 08:00 PM

sorry people first part is actually this
-------------------
-------------------
-2-2-2-2-2-2-2-2---
------------------------------------------------------------

0 reply
redwing_suck 302 May 15, 2002 08:00 PM

thanks for speaking english with the "thingy" explanation.... not. and the very first part of the song is not 2-2-2-2-2-2 or whatever, it's:
|---------------
|---------------
|-5------------
|-x------------
|-3-----------
|--------------

do that x8

guest
You may want to rate the tab now too:
select rating
Wanna post a correction for this tab? Suggest correction