Oops, an error
Loading. Please wait.
We have an official Story Of A Lonely Guy tab made by UG professional guitarists. Check out the tab »
×
331 views 1 this week
1 commentread comment
1 2 3 4 5
3 more votes to show rating
add to favorites
×
Save as Personal and add changes to this tab that will be seen only by you. Learn more ›
×
You can save this tab as Personal to edit and correct it or add notes. All changes will be seen only by you. Learn more »
launch autoscroll
font size
0
reset
guitar tuner
edit
Autoscroll
slow
fast
+/-
esc
set tempo
stop
Author
-------------------------------------------------------------------------------
			     Story Of A Lonely Guy- Blink 182
-------------------------------------------------------------------------------

Tabbed By : Edd
e-mail: Wesoldoursoulsforrocknroll@hotmail.co.uk

A lot of bad bass tabs for this song so I thought i'd correct them. This is my first tab 
let me know what you guys think. Cheers.

Tuning: Stadard

Intro

G|-----9--9-------9----9----9-------6---6--------2---4---6-----------------|
D|-------------------------------------------------------------------------|
A|-0-0--0--0--9-9---9----9---9--4-4---4---4--0-0---0---0-------------------|
E|-------------------------------------------------------------------------|

G|-----9--9-------9----9----9-------6---6--------2---4---2-----------------|
D|-------------------------------------------------------------------------|
A|-0-0--0--0--9-9---9----9---9--4-4---4---4--0-0---0---0-------------------|
E|-------------------------------------------------------------------------|

Verse

G|-------------------------------------------------------------------------|
D|-------------------------------------------------------------------------|
A|-0-0-0-0-0-0-0-0-2-2-2-2-2-2-2-2-4-4-4-4-4-4-4-4-5-5-5-5-5-5-5-5---------|
E|-------------------------------------------------------------------------|

G|-------------------------------------------------------------------------|
D|-------------------------------------------------------------------------|
A||-0-0-0-0-0-0-0-0-2-2-2-2-2-2-2-2-4-4-4-4-4-4-4-4-5-5-5-5-5-5-5-5--------|
E|-------------------------------------------------------------------------|

G|-------------------------------------------------------------------------|
D|-------------------------------------------------------------------------|
A||-0-0-0-0-0-0-0-0-2-2-2-2-2-2-2-2-4-4-4-4-4-4-4-4-5-5-5-5-5-5-5-5--------|
E|-------------------------------------------------------------------------|

G|-------------------------------------------------------------------------|
D|-------------------------------------------------------------------------|
A||-0-0-0-0-0-0-0-0-2-2-2-2-2-2-2-2-4-4-4-4-4-4-4-4-5-5-5-5-5-5-5-5--------|
E|-------------------------------------------------------------------------|

Pre Chorus

'Da da, Da da...'
G|-------------------------------------------------------------------------|
D|-------------------------------------------------------------------------|
A|-4-4-4-4-4-4-4-4-5-5-5-5-5-5-5-5-0-0-0-0-0-0-0-0-7-7-7-7-7-7-7-7---------|
E|-------------------------------------------------------------------------|

G|-------------------------------------------------------------------------|
D|-------------------------------------------------------------------------|
A|-4-4-4-4-4-4-4-4-5-5-5-5-5-5-5-5-0-0-0-0-0-0-0-0-7-7-7-7-7-7-7-7~9-------|
E|-------------------------------------------------------------------------|

Chorus

G|-------------------------------------------------------------------------|
D|-------------------------------------------------------------------------|
A|-0-0-0-0-0-0-0-0-7-7-7-7-7-7-7-7-9-9-9-9-9-9-9-9-5-5-5-5-5-5-5-5---------|
E|-------------------------------------------------------------------------|

G|-------------------------------------------------------------------------|
D|-------------------------------------------------------------------------|
A|-0-0-0-0-0-0-0-0-7-7-7-7-7-7-7-7-9-9-9-9-9-9-9-9-5-5-5-5-5-5-5-5---------|
E|-------------------------------------------------------------------------|

G|-------------------------------------------------------------------------|
D|-------------------------------------------------------------------------|
A|-0-0-0-0-0-0-0-0-7-7-7-7-7-7-7-7-9-9-9-9-9-9-9-9-5-5-5-5-5-5-5-5---------|
E|-------------------------------------------------------------------------|

G|-------------------------------------------------------------------------|
D|-------------------------------------------------------------------------|
A|-0-0-0-0-0-0-0-0-7-7-7-7-7-7-7-7-9-9-9-9-9-9-9-9-5-5-5-5-5-5-5-5---------|
E|-------------------------------------------------------------------------|

Post Chorus

G|-----9--9-------9----9----9-------6---6--------2---4---6-----------------|
D|-------------------------------------------------------------------------|
A|-0-0--0--0--9-9---9----9---9--4-4---4---4--0-0---0---0-------------------|
E|-------------------------------------------------------------------------|

G|-----9--9-------9----9----9-------6---6--------2---4---2-----------------|
D|-------------------------------------------------------------------------|
A|-0-0--0--0--9-9---9----9---9--4-4---4---4--0-0---0---0-------------------|
E|-------------------------------------------------------------------------|

Verse

G|-------------------------------------------------------------------------|
D|-------------------------------------------------------------------------|
A|-0-0-0-0-0-0-0-0-2-2-2-2-2-2-2-2-4-4-4-4-4-4-4-4-5-5-5-5-5-5-5-5---------|
E|-------------------------------------------------------------------------|

G|-------------------------------------------------------------------------|
D|-------------------------------------------------------------------------|
A||-0-0-0-0-0-0-0-0-2-2-2-2-2-2-2-2-4-4-4-4-4-4-4-4-5-5-5-5-5-5-5-5--------|
E|-------------------------------------------------------------------------|

G|-------------------------------------------------------------------------|
D|-------------------------------------------------------------------------|
A||-0-0-0-0-0-0-0-0-2-2-2-2-2-2-2-2-4-4-4-4-4-4-4-4-5-5-5-5-5-5-5-5--------|
E|-------------------------------------------------------------------------|

G|-------------------------------------------------------------------------|
D|-------------------------------------------------------------------------|
A||-0-0-0-0-0-0-0-0-2-2-2-2-2-2-2-2-4-4-4-4-4-4-4-4-5-5-5-5-5-5-5-5--------|
E|-------------------------------------------------------------------------|

Pre Chorus

'Da da, Da da...'
G|-------------------------------------------------------------------------|
D|-------------------------------------------------------------------------|
A|-4-4-4-4-4-4-4-4-5-5-5-5-5-5-5-5-0-0-0-0-0-0-0-0-7-7-7-7-7-7-7-7---------|
E|-------------------------------------------------------------------------|

G|-------------------------------------------------------------------------|
D|-------------------------------------------------------------------------|
A|-4-4-4-4-4-4-4-4-5-5-5-5-5-5-5-5-0-0-0-0-0-0-0-0-7-7-7-7-7-7-7-7~9-------|
E|-------------------------------------------------------------------------|

Chorus

G|-------------------------------------------------------------------------|
D|-------------------------------------------------------------------------|
A|-0-0-0-0-0-0-0-0-7-7-7-7-7-7-7-7-9-9-9-9-9-9-9-9-5-5-5-5-5-5-5-5---------|
E|-------------------------------------------------------------------------|

G|-------------------------------------------------------------------------|
D|-------------------------------------------------------------------------|
A|-0-0-0-0-0-0-0-0-7-7-7-7-7-7-7-7-9-9-9-9-9-9-9-9-5-5-5-5-5-5-5-5---------|
E|-------------------------------------------------------------------------|

G|-------------------------------------------------------------------------|
D|-------------------------------------------------------------------------|
A|-0-0-0-0-0-0-0-0-7-7-7-7-7-7-7-7-9-9-9-9-9-9-9-9-5-5-5-5-5-5-5-5---------|
E|-------------------------------------------------------------------------|

G|-------------------------------------------------------------------------|
D|-------------------------------------------------------------------------|
A|-0-0-0-0-0-0-0-0-7-7-7-7-7-7-7-7-9-9-9-9-9-9-9-9-5-5-5-5-5-5-5-5---------|
E|-------------------------------------------------------------------------|

Bridge (The timing is hard to explain so i will count it out)

   1 and a 2 and a 3 and a 4 and a 5 (Kicks in)  8
G|-------------------------------------------------------------------------|
D|-------------------------------------------------------------------------|
A|-4-------------4-2---------------7-7-7-7-7-7-7-7-------------------------|
E|-------------------------------------------------------------------------|

    1 and a 2 and a 3 and a 4 and a 5 (Kicks in)  8
G|-------------------------------------------------------------------------|
D|-------------------------------------------------------------------------|
A|-4-------------4-2---------------7-7-7-7-7-7-7-7-------------------------|
E|-------------------------------------------------------------------------|

   1 and a 2 and a 3 and a 4 and a 5 (Kicks in)  8
G|-------------------------------------------------------------------------|
D|-------------------------------------------------------------------------|
A|-4-------------4-2---------------7-7-7-7-7-7-7-7-------------------------|
E|-------------------------------------------------------------------------|

  1 and a 2 and a 3 and a 4 and a 5 and a 6 and a 7 and a  8
G|-------------------------------------------------------------------------|
D|-------------------------------------------------------------------------|
A|-4------------4-5---------------7---------------0------------------------|
E|---------------------------------------------------------4---------------|

   1 and a 2 and a 3 and a 4 and a 5
G|-------------------------------------------------------------------------|
D|-------------------------------------------------------------------------|
A|-4-------------4-2-------------7\0---------------------------------------|
E|-------------------------------------------------------------------------|

Outro

G|-------------------------------------------------------------------------|
D|-------------------------------------------------------------------------|
A|-0-0-0-0-0-0-0-0-7-7-7-7-7-7-7-7-9-9-9-9-9-9-9-9-5-5-5-5-5-5-5-5---------|
E|-------------------------------------------------------------------------|

G|-------------------------------------------------------------------------|
D|-------------------------------------------------------------------------|
A|-0-0-0-0-0-0-0-0-7-7-7-7-7-7-7-7-9-9-9-9-9-9-9-9-5-5-5-5-5-5-5-5---------|
E|-------------------------------------------------------------------------|

G|-------------------------------------------------------------------------|
D|-------------------------------------------------------------------------|
A|-0-0-0-0-0-0-0-0-7-7-7-7-7-7-7-7-9-9-9-9-9-9-9-9-5-5-5-5-5-5-5-5---------|
E|-------------------------------------------------------------------------|

G|-------------------------------------------------------------------------|
D|-------------------------------------------------------------------------|
A|-0-0-0-0-0-0-0-0-7-7-7-7-7-7-7-7-9-9-9-9-9-9-9-9-5-5-5-5-5-5-5-5---------|
E|-------------------------------------------------------------------------|

G|-------------------------------------------------------------------------|
D|-------------------------------------------------------------------------|
A|-0-0-0-0-0-0-0-0-7-7-7-7-7-7-7-7-9-9-9-9-9-9-9-9-5-5-5-5-5-5-5-5---------|
E|-------------------------------------------------------------------------|

G|-------------------------------------------------------------------------|
D|-------------------------------------------------------------------------|
A|-0-0-0-0-0-0-0-0-7-7-7-7-7-7-7-7-9-9-9-9-9-9-9-9-5-5-5-5-5-5-5-5---------|
E|-------------------------------------------------------------------------|


| /  slide up
| \  slide down
| h  hammer-on
| p  pull-off
| ~  vibrato
| +  harmonic
| x  Mute note
===============================================================================

            
            
Suggest correction
Creating personal tab
Creating personal tab
You can edit any tab online and save it as your Personal.

You can edit, replace or remove any tab part or add personal notes – all changes will be seen only by you.

Personal tabs can be accessed anytime from any device, even offline.
Learn more »
Give kudos to tab author, rate the tab!
1 2 3 4 5
comments
print report bad tab
1 comment total.
0 reply
Edd5000 30 Feb 05, 2009 04:21 AM

This is the creator of the tab... i've made an error instead of..

G|-----9--9-------9----9----9-------6---6--------2---4---6-----------
D|-------------------------------------------------------------------
A|-0-0--0--0--9-9---9----9---9--4-4---4---4--0-0---0---0-------------
E|-------------------------------------------------------------------

It should be..

G|-----9--9-------9---9---9-------6---6--------2---4---6-------------
D|-------------9-9--9---9----4-4----4---4---0-0--0---0---------------
A|-0-0--0--0---------------------------------------------------------
E|-------------------------------------------------------------------

guest
You may want to rate the tab now too:
select rating
Wanna post a correction for this tab? Suggest correction