Oops, an error
Loading. Please wait.
We have an official Violence tab made by UG professional guitarists. Check out the tab »
×
13,299 views 12 this week
2 commentsread comments
1 2 3 4 5
x 16
add to favorites
×
Save as Personal and add changes to this tab that will be seen only by you. Learn more ›
×
You can save this tab as Personal to edit and correct it or add notes. All changes will be seen only by you. Learn more »
launch autoscroll
font size
0
reset
guitar tuner
edit
Autoscroll
slow
fast
+/-
esc
set tempo
stop
Author
This is my first tab, so if it's not up to par, just deal with it.
Standard Tuning: EAGD

Listen to strumming pattern here
(0:17)
G|-------------------------|
D|-------------------------|
A|-----2-22-22-------------|
E|-------------------------|

(0:25)
G|-------------------------|
D|-------------------------|
A|-----2-22-22-------------|
E|-------------------------|

(0:33)
G|--------------------------------------------------------------|
D|--------------------------------------------------------------|[x2]
A|--2-22-222222222--4-44-44444444-------------------------------|
E|---------------------------------4-44-44444444--6-66-66666666-|

(Listen to strumming)
(0:52)
G|-------------------------|
D|-------------------------|    [x4]
A|--222-222\-666-----------|
E|---------------6---------|

(1:11)
G|--------------------------------------------------------------|
D|--------------------------------------------------------------|[x2]
A|--2-22-222222222--4-44-44444444-------------------------------|
E|---------------------------------4-44-44444444--6-66-66666666-|

(Listen to strumming)
(1:32)
G|-------------------------|
D|-------------------------|    [x4]
A|--222-222\-666-----------|
E|---------------6---------|

(1:49)
G|--------------------------------------------------------------|
D|--------------------------------------------------------------|[x2]
A|--2-22-222222222--4-44-44444444-------------------------------|
E|---------------------------------4-44-44444444--6-66-66666666-|

(2:06)
G|--------------------------|
D|--------13-------13----13-|
A|--11-11----11-11----11----|
E|--------------------------|

G|-------------------------|
D|------11-----11---11-----|
A|--9-9----9-9----9--------|
E|-------------------------|
                                   [x5] (Fade on 2nd part last time)
D---------------------------|
G------8-----8---8----------|
A--6-6---6-6---6------------|
E---------------------------|

G|-------------------------|
D|------9-----9---9--------|
A|--7-7---7-7---7----------|
E|-------------------------|

(2:50)
G|------------------------------------------------------------------| 
D|------------------------------------------------------------------|[x4]
A|--2-22-222222222--4-44-44444444-----------------------------------| 
E|---------------------------------4-44-44444444--6-66-66666666-----| 

End on
(3:22)
G|----------------------------|
D|----------------------------|
A|--2~~~----------------------|
E|----------------------------|

************************************

| \  Slide down
| ~  Vibrato

************************************

            
            
Suggest correction
Creating personal tab
Creating personal tab
You can edit any tab online and save it as your Personal.

You can edit, replace or remove any tab part or add personal notes – all changes will be seen only by you.

Personal tabs can be accessed anytime from any device, even offline.
Learn more »
comments
print report bad tab
2 comments total.
0 reply
Forrest-182 10 Jan 27, 2016 12:37 PM

NICE its all right

0 reply
acruskie 16 Sep 02, 2017 11:47 AM

For a first tab it's damn good

guest
You may want to rate the tab now too:
select rating
Wanna post a correction for this tab? Suggest correction