Oops, an error
Loading. Please wait.
We have an official Wendy Clear tab made by UG professional guitarists. Check out the tab »
×
2,681 views 6 this week
1 commentread comment
1 2 3 4 5
x 6
add to favorites
×
Save as Personal and add changes to this tab that will be seen only by you. Learn more ›
×
You can save this tab as Personal to edit and correct it or add notes. All changes will be seen only by you. Learn more »
launch autoscroll
font size
0
reset
guitar tuner
edit
Autoscroll
slow
fast
+/-
esc
set tempo
stop
Author
Difficulty
Song-Wendy Clear
Song By-Blink 182
Bassist-Mark Hoppus

/=slide

 INTRO
G-----------------------------------------------------|
D---------------------------3-33333-3-33333[x2--------|
A--7/3-33333-3-33333[x2]------------------------------|
E-----------------------------------------------------|

G-----------------------------------------------------|
D--5-55555-5-55555--3-33333-3-33333-------------------|
A-----------------------------------------------------|
E-----------------------------------------------------|

VERSE
G-----------------------------------------------------------|
D-----------------------------------------------------------|
A-33333333333333333333--------------------------------------|
E----------------------3-111111111111-55555555-11111-3------|

G-----------------------------------------------------------|
D-----------------------------------------------------------|
A-33333333333333333333--------------------------------------|
E----------------------3-111111111111-55555555-11111-3------|

CHORUS
G-------------------------------------------------------------------|
D--------------------55555555-33333333------------------------------|
A-(333333333333)--------------------------333333333333333-----------|
E-------------------------------------------------------------------| [x2]

G--------------------------------------------------------------|
D--------------------------------------------------------------|
A---------------------------33333333---------------------------|
E--55555555-11111111-------------------33333333----------------|

G-------------------------------------------------------|
D-------------------------------------------------------|
A----------------------------3333333333333333-----------|
E--55555555-111111-3------------------------------------|

Repeat:
Intro
Verse
Chorus
G------------------------------------------------------------------|
D------------------------------------------------------------------|
A-------------33-------------------------333333333333333-----------|
E----55--11------33--55--11111111----------------------------------|  [x2]

Intro x1

G-------------------------------|
D-------------------------------|
A---3333333333333333------------|
E-------------------------------|

|--------break---------|

Chorus x2

G--------------------------|
D------5~~--3~~------------|
A--------------------3~~---|
E--------------------------|

            
            
Suggest correction
Creating personal tab
Creating personal tab
You can edit any tab online and save it as your Personal.

You can edit, replace or remove any tab part or add personal notes – all changes will be seen only by you.

Personal tabs can be accessed anytime from any device, even offline.
Learn more »
comments
print report bad tab
1 comment total.
0 reply
zjcl1 114 Mar 07, 2012 05:40 AM

best tab for this song. ever.

guest
You may want to rate the tab now too:
select rating
Wanna post a correction for this tab? Suggest correction