Oops, an error
Loading. Please wait.

Mary And The Storm tab

version 1
version 1

Whole song

3,417 views 1 this week
3 commentsread comments
1 2 3 4 5
x 6
add to favorites
×
Save as Personal and add changes to this tab that will be seen only by you. Learn more ›
×
You can save this tab as Personal to edit and correct it or add notes. All changes will be seen only by you. Learn more »
launch autoscroll
font size
0
reset
how to read this tab
guitar tuner
edit
Autoscroll
slow
fast
+/-
esc
set tempo
stop
Author
Blitzkid – "Mary and the Storm"
A great song. Shame no-one's tabbed it yet.
Standard Tuning

Intro (clean)
    C#sus2             C#sus2/G#
e|------------------|------------------|------------------|-------------------|
B|--------4---------|--------4---------|--------6---------|--6h7----6---------|
G|----6-------6---6-|----6-------6---6-|----6-------6---6-|------------6---6--|
D|------6-------6---|------6-------6---|------6-------6---|------4-------4----|
A|--4---------------|------------------|------------------|-------------------|
E|------------------|--4---------------|--6---------------|-------------------|

Intro/Verses Chords (w/distortion)
   C#5   G#5   A#5
e|-----|-----|-----|-----|
B|-----|-----|-----|-----|
G|--6--|-----|-----|-----|
D|--6--|--6--|--8--|--8--|
A|--4--|--6--|--8--|--8--|
E|-----|--4--|--6--|--6--|
"Come, Mary, Come and watch the storm..."

Chorus
e|-----|-----|------------------------|
B|-----|-----|------------------------|
G|--4--|-----|---6--------------------|
D|--4--|--4--|---6--------------------|
A|--2--|--4--|---4---6--8--9---8-8--6-|
E|-----|--2--|------------------------|
"Mother's will is far away..."

            
            
Suggest correction
Creating personal tab
Creating personal tab
You can edit any tab online and save it as your Personal.

You can edit, replace or remove any tab part or add personal notes – all changes will be seen only by you.

Personal tabs can be accessed anytime from any device, even offline.
Learn more »
comments
print report bad tab
3 comments total.
0 reply
dr.bones13 30 Nov 16, 2008 11:13 PM

thank you SOOOOOOOOO much for tabbing this! I love this song to bits

0 reply
Davad 63 Dec 01, 2008 04:54 AM

well done! awesome tab.

Now for carve out a heart??? =p

0 reply
themuddman 202 Oct 21, 2009 06:17 PM

e|-----|-----|------------------------|
B|-----|-----|------------------------|
G|-----|-----|------------------------|
D|-----|-----|---3--------------------|
A|--4--|--6--|---1--------------------|
E|--2--|--4--|------------------------|
"were intwined in midnights embrace"
u forgot this part

guest
You may want to rate the tab now too:
select rating
Wanna post a correction for this tab? Suggest correction