Oops, an error
Loading. Please wait.

Mary And The Storm tab

version 2
version 2

Whole song

954 views 1 this week
6 commentsread comments
1 2 3 4 5
2 more votes to show rating
add to favorites
×
Save as Personal and add changes to this tab that will be seen only by you. Learn more ›
×
You can save this tab as Personal to edit and correct it or add notes. All changes will be seen only by you. Learn more »
launch autoscroll
font size
0
reset
how to read this tab
guitar tuner
edit
Autoscroll
slow
fast
+/-
esc
set tempo
stop
Author
Mary And The Storm By Blitzkid
Standard Tuning EADGBe
Tabbed By "The Muddman" Jovan Sanchez

Such a great song,its one of my favorites
and its super easy, the hardest part of this song is the intro and outro,
hope u guys like the tab. Also i want to give some credit to 
"Sashki" i got alot of the intro from him except some parts,
i would have done my own thing but his already sounded really good.

 INTRO

|--------------------------------------------|  -|
|------------4--------------------4----------|   |
|------6--------6-----6-----6--------6-----6-|   |
|---------6--------6-----------6--------6----|   | 
|---4----------------------------------------|   | 
|------------------------4-------------------|   | 
                                                 |--x3
|--------------------------------------------|   | 
|------------6--------6h7--6-----------------|   |  
|------6--------6-------------6--------------|   | 
|---------6----------------------6-----------|   |  
|--------------------------------------------|   | 
|---6----------------------------------------|  -| 

|--------------------------------------------|  
|------------6--------6h7--6-----------------|   
|------6--------6-------------6-----6--------|  
|---------6----------------------6-----------|  
|--------------------------------------------|   
|---6----------------------------------------|


 CHORUS

|--------------------------------------------|  -|
|--------------------------------------------|   |
|--------------------------------------------|   |
|---6--66-66---------------------------------|   |*lyrics come
|---4--44-44--6--66--66--8--88--88-----------|   | in at x4*
|-------------4--44--44--6--66--66-----------|   |
                                                 |--x7
|--------------------------------------------|   |
|--------------------------------------------|   |
|--------------------------------------------|   |
|--------------------------------------------|   |
|---8s9--99s8--88----------------------------|   |
|---6----66----66----------------------------|  -|

|---------------------------------------------|  
|---------------------------------------------|   
|---------------------------------------------|   
|---6--66-66----------------------------------|   
|---4--44-44--6--66--66--8--88--88--88888--6--|   
|-------------4--44--44--6--66--66--66666--4--|

"come mary come and watch the storm, mothers fears
 are tired sleepers beyond her silent windowsill,
 fathers peerings eyes now fade with weight, well
 run like silent phantoms free untill the dawn"


 VERSE

|----------------------------------------------|x3
|----------------------------------------------|
|----------------------------------------------|
|-------------------------3-3333333333-3-------|
|---4--44--44--6--66--66--1-1111111111-1--6----|
|---2--22--22--4--44--44------------------4----|

|----------------------------------------------|
|----------------------------------------------|
|----------------------------------------------|
|-------------------------3-3333333333333------|
|---4--44--44--6--66--66--1-1111111111111------|
|---2--22--22--4--44--44-----------------------|
 

"were intwined in midnights embrace your house,
a purple prison so far away,ill hide our games 
in the tree tops,and sleeping phantoms we will chase"


|--------------------------------------------|  -|
|--------------------------------------------|   |
|--------------------------------------------|   |
|---6--66-66---------------------------------|   |
|---4--44-44--6--66--66--8--88--88-----------|   | 
|-------------4--44--44--6--66--66-----------|   |
                                                 |--x3
|--------------------------------------------|   |
|--------------------------------------------|   |
|--------------------------------------------|   |
|--------------------------------------------|   |
|---8s9--99s8--88----------------------------|   |
|---6----66----66----------------------------|  -|

|---------------------------------------------|  
|---------------------------------------------|   
|---------------------------------------------|   
|---6--66-66----------------------------------|   
|---4--44-44--6--66--66--8--88--88--88888--6--|   
|-------------4--44--44--6--66--66--66666--4--|
 

"come mary come and watch the storm, mothers
 candle has exahsted shes dreaming of your birth,
 fathers clever watch is laid to sleep, downstairs
 ill wait for you beyond the boards that creek" 


|-----------------------------------|
|-----------------------------------|
|-----------------------------------|
|-----------------------------------|---|
|---4--44--44--6--66--66------------|   | 
|---2--22--22--4--44--44------------|   |
                                        |x4
|-----------------------------------|   |
|-----------------------------------|   |
|-----------------------------------|---|
|---33--333--333--333---------------|
|---11--111--111--111--6------------|
|----------------------4------------|

|---------------------------|
|---------------------------|
|---------------------------|
|---------------------------|*the last chord sounds 
|---4-----6-----2-----------|lower, but there's no getting 
|---2-----4-----0-----------|there in standard 


"Were intwined in midnights embrace,your house a 
purple ruin so far away, ill hide our games in 
the tree tops and sleeping phantoms we will chase"


BRIDGE

|--------------------------------------------|x8
|--------------------------------------------|
|--------------------------------------------|
|---4--44--44-------------6--66666666666666--|
|---2--22--22--4--44--44--4--44444444444444--|
|--------------2--22--22---------------------|

Guitar #2
|--------------------------------------------|
|--------------------------------------------|
|--6--6-8--10--11--10--8\-6----4/--11--------|
|--------------------------------------------|
|--4--4-6---8--9---8---6\-4----2/--9---------|
|--------------------------------------------|

"Mothers will is far away, father fists are far away,
  we set the horses loose tonight, unbridled freedom
  blessed night"

*Bass* transcribed in guitar
|-----------------------------|  
|-----------------------------|   
|-----------------------------|   
|---4--3--4-------------------|   
|---2--1--2--4--6--6--11------|   
|------------2--4--8--9-------|   
                    
Guitar 
|----------------------------|   
|----------------------------|  
|----------------------------|   
|----------------------------|---------------|   
|---9----------4-------------|               |
|---7----------2-------------|               |
                                             |x4
|----------------------------------------|   | 
|----------------------------------------|   | 
|----------------------------------------| --| 
|----------------------------------------|   
|---11-1111111111111111111111111111------|   
|---9---9 9 9 9 9 9 9 9 9 9 9 9 9 9------|  
 
"unbridled freedom blessed night" 

|----------------------------|   
|----------------------------|  
|----------------------------|   
|----------------------------|   
|---9----------4---------6---|   
|---7----------2---------4---|


 OUTRO


|--------------------------------------------|  -|
|------------4--------------------4----------|   |
|------6--------6-----6-----6--------6-----6-|   |
|---------6--------6-----------6--------6----|   | 
|---4----------------------------------------|   | 
|------------------------4-------------------|   | 
                                                 |--x3
|--------------------------------------------|   | 
|------------6--------6h7--6-----------------|   |  
|------6--------6-------------6--------------|   | 
|---------6----------------------6-----------|   |  
|--------------------------------------------|   | 
|---6----------------------------------------|  -|

|--------------------------------------------|  
|------------4--------------------4----------|   
|------6--------6-----6-----6--------6-----6-|   
|---------6--------6-----------6--------6----|   
|---4----------------------------------------|    
|------------------------4-------------------|   

|--------------------------------------------|   
|------------6----------6--------------------|  
|------6--------6---------6-------6-----6----|   
|---------6-----------6-----6---6-------6----|   
|-----------------------------8---------4----|   
|---6----------------------------------------|


"come mary, come and watch the storm
 come mary, come and watch the storm
 with me tonight" 



thats about it hope u guys like this one,its my first tab so yeah, 
please comment n' stuff... later

            
            
Suggest correction
Creating personal tab
Creating personal tab
You can edit any tab online and save it as your Personal.

You can edit, replace or remove any tab part or add personal notes – all changes will be seen only by you.

Personal tabs can be accessed anytime from any device, even offline.
Learn more »
Give kudos to tab author, rate the tab!
1 2 3 4 5
comments
print report bad tab
6 comments total. Showing first comments.
0 reply
themuddman 202 May 31, 2010 05:18 PM

sorry about the bridge, totaly didnt spot the mistak but i fixed it now, it should update in a couple of days

0 reply
themuddman 202 Sep 12, 2010 07:54 PM

Just Added the second guitar for the bridge

0 reply
grungerocker94 1,160 Nov 17, 2010 02:32 PM

whats the tuning?

guest
You may want to rate the tab now too:
select rating
Wanna post a correction for this tab? Suggest correction