Oops, an error
Loading. Please wait.

She Dominates tab

version 2
version 2

Whole song

Interactive

1,553 views 9 this week
no commentswrite comment
1 2 3 4 5
2 more votes to show rating
add to favorites
×
Save as Personal and add changes to this tab that will be seen only by you. Learn more ›
×
You can save this tab as Personal to edit and correct it or add notes. All changes will be seen only by you. Learn more »
launch autoscroll
font size
0
reset
how to read this tab
guitar tuner
edit
Autoscroll
slow
fast
+/-
esc
set tempo
stop
Author
She Dominates By Blitzkid
Half-Step Down Eb Ab Db Gb Bb eb 
Tabbed By "The Muddman" Jovan Sanchez

I just wanted to tab this song cause im kinda 
picky n the other versions wernt quite perfect 
not that mine is or isnt but yea, hope u guys
like it. This one took me like 4 1/2 hours 
streight to tab haha so comment and 
rate it, and tell me how i did .)
Also this is my 3rd Blitzkid tab So chek out my other ones.

INTRO                           
                                
|-------------|---------------------------------------|
|-------------|---------------------------------------|
|-------------|--------------------7-77777------------|
|-------------|--4-44444444444444--7-77777--------7-9-|x4
|-------------|--4-44444444444444--5-55555--1111--7-9-|
|--1--/9--\2--|--2-22222222222222-----------0000--5-7-|
                   | 14 Notes   |
                        
VERSE

|-------------------------------------------|
|-------------------------------------------|
|--------------------7-7777-----------------|
|--4-44444444444444--7-7777-----------------|x3
|--4-44444444444444--5-5555--1-1111---------|
|--2-22222222222222----------0-0000---------|
     ..............    ....    ....

|--------------------------------------|
|--------------------------------------|
|--------------------7-7777------------|
|--4-44444444444444--7-7777------------|
|--4-44444444444444--5-5555--1-1111----|
|--2-22222222222222----------0-0000----|
     ..............    

CHORUS

|-----------------------------------------|
|-----------------------------------------|
|---------------------7-77777-------------|
|---4-44444444444444--7-77777--------7-9--|x2
|---4-44444444444444--5-55555--1111--7-9--|    
|---2-22222222222222-----------0000--5-7--|    

2ND VERSE

|-------------------------------------------|
|-------------------------------------------|
|--------------------7-7777-----------------|
|--4-44444444444444--7-7777-----------------|x3
|--4-44444444444444--5-5555--1-1111---------|
|--2-22222222222222----------0-0000---------|
     ..............    ....    ....

|--------------------------------------|
|--------------------------------------|
|--------------------7-7777------------|
|--4-44444444444444--7-7777------------|
|--4-44444444444444--5-5555--1-1111----|
|--2-22222222222222----------0-0000----|
     ..............    

|------------------------------------------|
|------------------------------------------|
|--7-77777777777777------------------------|
|--7-77777777777777--4-44444444444444------|
|--5-55555555555555--4-44444444444444------|
|--------------------2-22222222222222------|

|------------------------------------------|
|------------------------------------------|
|--7-77777777777777--9-99999999999999------|
|--7-77777777777777--9-99999999999999-7-9--|
|--5-55555555555555--7-77777777777777-7-9--|
|-------------------------------------5-7--|

2ND CHORUS

|-----------------------------------------|
|-----------------------------------------|
|------------7-777777--9-9999999999-------|
|--4-444444--7-777777--9-9999999999-7-9---|x2
|--4-444444--5-555555--7-7777777777-7-9---|
|--2-222222-------------------------5-7---|
                         |10 Notes|

|-----------------------------------------|
|-----------------------------------------|
|-----------7-777777----------------------|
|--4-444444-7-777777----------------------|
|--4-444444-5-555555-1-1111-4-4444-44-2---|
|--2-222222----------0-0000-2-2222-22-0---|


|-----------------------------------------|
|-----------------------------------------|
|------------7-777777--9-9999999999-------|
|--4-444444--7-777777--9-9999999999-7-9---|
|--4-444444--5-555555--7-7777777777-7-9---|
|--2-222222-------------------------5-7---|


|-----------------------------------------|
|-----------------------------------------|
|--------------------7-77777--------------|
|---4-44444444444444-7-77777-------7-9----|x2
|---4-44444444444444-5-55555-1111--7-9----|    
|---2-22222222222222---------0000--5-7----|  

3rd VERSE

|-------------------------------------------|
|-------------------------------------------|
|--------------------7-7777-----------------|
|--4-44444444444444--7-7777-----------------|x3
|--4-44444444444444--5-5555--1-1111---------|
|--2-22222222222222----------0-0000---------|
     ..............    ....    ....

|--------------------------------------|
|--------------------------------------|
|--------------------7-7777------------|
|--4-44444444444444--7-7777------------|
|--4-44444444444444--5-5555--1-1111----|
|--2-22222222222222----------0-0000----|
     ..............
|-----------------------------------------|
|-----------------------------------------|
|---------------------7-77777-------------|
|---4-44444444444444--7-77777--------7-9--|
|---4-44444444444444--5-55555--1111--7-9--|    
|---2-22222222222222-----------0000--5-7--|

|-------------------------------------------|
|-------------------------------------------|
|--------------------7-7777--9-999999-------|
|--4-44444444444444--7-7777--9-999999-------|
|--4-44444444444444--5-5555--7-777777-------|    
|--2-22222222222222-------------------------|

|------------------------------------------|
|------------------------------------------|
|--7-77777777777777------------------------|
|--7-77777777777777--4-44444444444444------|
|--5-55555555555555--4-44444444444444------|
|--------------------2-22222222222222------|

|------------------------------------------|
|------------------------------------------|
|--7-77777777777777--9-99999999999999------|
|--7-77777777777777--9-99999999999999-7-9--|
|--5-55555555555555--7-77777777777777-7-9--|
|-------------------------------------5-7--|

OUTRO CHORUS

|-----------------------------------------|
|-----------------------------------------|
|------------7-777777--9-9999999999-------|
|--4-444444--7-777777--9-9999999999-7-9---|x2
|--4-444444--5-555555--7-7777777777-7-9---|
|--2-222222-------------------------5-7---|

|-----------------------------------------|
|-----------------------------------------|
|-----------7-777777----------------------|
|--4-444444-7-777777----------------------|
|--4-444444-5-555555-1-1111-4-4444-44-2---|
|--2-222222----------0-0000-2-2222-22-0---|

|-----------------------------------------|
|-----------------------------------------|
|------------7-777777--9-9999999999-------|
|--4-444444--7-777777--9-9999999999-7-9---|x5
|--4-444444--5-555555--7-7777777777-7-9---|
|--2-222222-------------------------5-7---|

|-----------------------------------------|
|-----------------------------------------|
|---------------------7-77777-------------|
|---4-44444444444444--7-77777-------7-9---|x2
|---4-44444444444444--5-55555-1111--7-9---|    
|---2-22222222222222----------0000--5-7---|

|-------------|
|-------------|
|-------------|
|--4--------4-|
|--4--------4-|
|--2--------2-|


...= Palm Mute

And there it is, pretty simple song the
only thing u gotta worry about is not gettin 
ur fingers tired, that being said there
was one part i couldnt quite tab and that is 
unfortunatly, the solo, one day tho .) 

            
            
Suggest correction
Creating personal tab
Creating personal tab
You can edit any tab online and save it as your Personal.

You can edit, replace or remove any tab part or add personal notes – all changes will be seen only by you.

Personal tabs can be accessed anytime from any device, even offline.
Learn more »
Give kudos to tab author, rate the tab!
1 2 3 4 5
comments
print report bad tab
guest
You may want to rate the tab now too:
select rating
Wanna post a correction for this tab? Suggest correction