Oops, an error
Loading. Please wait.
We have an official Storm And Stress tab made by UG professional guitarists. Check out the tab »
×
4,199 views 3 this week
4 commentsread comments
1 2 3 4 5
x 5
add to favorites
×
Save as Personal and add changes to this tab that will be seen only by you. Learn more ›
×
You can save this tab as Personal to edit and correct it or add notes. All changes will be seen only by you. Learn more »
launch autoscroll
font size
0
reset
how to read this tab
guitar tuner
edit
Autoscroll
slow
fast
+/-
esc
set tempo
stop
Author
BLOC PARTY - STORMS AND STRESS
Tabbed by: Matty

Russell's part is made up of lots of different riffs. I have worked out all of them 
from one. The rest of it is pretty accurate though. I'm only tabbing russells parts because 
are pretty minimal.


Intro and Verse - Riff One
e|----------------------|-----------------------|
B|----------------------|-----------------------|
G|-13-13-------9-9-11-11|-13-13-------9-9-11-11-|
D|-------11-11----------|-------11-11-----------|
A|----------------------|-----------------------|
E|----------------------|-----------------------|

Riff Two - "You drink to laugh"
e|----------------|------------------|
B|----------------|------------------|
G|---------7-7-7-7|-6-6-6-6----------|
D|-7-7-7-7--------|---------4-4-4-4--|
A|----------------|------------------|
E|----------------|------------------|

Riff Three is the one i haven't worked out yet, at the moment i just play riff two twice more.


Chorus - Riff 4
e|------------------|------------------|------------|----------|
B|------------------|------------------|------------|----------|
G|---------9---11---|---------9---11---|-6----6-6-7-|-6\4-4\2--|
D|-7---7-7----------|-7---7-7----------|------------|----------|
A|------------------|------------------|------------|----------|
E|------------------|------------------|------------|----------|


Riff 5 - "A new fight for a last right"

e|------------------|-----------------|
B|------------------|-----------------|
G|--7-7-7-7-7-7-7-9-|-6-6-6-6-6-6-6-6-|
D|------------------|-----------------|
A|------------------|-----------------|
E|------------------|-----------------|


Algorithm

Riff One X 24
Riff Two X 2
Riff Three (or Riff Two again) X 2
Riff One X 16
Riff Two x 2
Riff Three (or Riff Two again) X 2
Riff Four x 4
Riff One x 4
Riff Five x 8
Riff Four x 4
Riff One x 4

And that's it!!!

| /  slide up
| \  slide down
| h  hammer-on
| p  pull-off
| ~  vibrato
| +  harmonic
| x  Mute note

            
            
Suggest correction
Creating personal tab
Creating personal tab
You can edit any tab online and save it as your Personal.

You can edit, replace or remove any tab part or add personal notes – all changes will be seen only by you.

Personal tabs can be accessed anytime from any device, even offline.
Learn more »
comments
print report bad tab
4 comments total. Showing first comments.
0 reply
mattyp90 612 Jul 02, 2007 07:09 AM

Riff 3 (I think)
e|-------12-------------|-------------10-9---|
B|-10-10----10-9-9-12-9-|-9---9------------9-|
G|----------------------|---9---9--11--------|
D|----------------------|--------------------|
A|----------------------|--------------------|
E|----------------------|--------------------|

e|-------12-12----------|-------------9------|
B|-10-10-------9-9-12-9-|-9---9----12---9~~--|
G|----------------------|---9---9------------|
D|----------------------|--------------------|
A|----------------------|--------------------|
E|----------------------|--------------------|

Jesus your name is similar to mine, and your musical taste looks it too. Nice :D.

0 reply
matty99 276 Jul 05, 2007 06:25 AM

sounds spot on to me...cheers!

0 reply
mooncc 60 Oct 15, 2007 05:23 PM

awesome job guys
5* tab when combined with the other matty

guest
You may want to rate the tab now too:
select rating
Wanna post a correction for this tab? Suggest correction