Oops, an error
Loading. Please wait.

Talons tab

version 3
version 3

Whole song

Interactive

5,367 views 1 this week
2 commentsread comments
1 2 3 4 5
x 7
add to favorites
×
Save as Personal and add changes to this tab that will be seen only by you. Learn more ›
×
You can save this tab as Personal to edit and correct it or add notes. All changes will be seen only by you. Learn more »
launch autoscroll
font size
0
reset
how to read this tab
guitar tuner
edit
Autoscroll
slow
fast
+/-
esc
set tempo
stop
Author
Difficulty
Chorus/Intro Riff 1
e|-------------------------------------------------|
B|-------------------------------------------------|
G|-------------------------------------------------|
D|----------10-10-10-77777-88888888-10-10-10-77777-|
A|-55555555----------------------------------------|
E|-------------------------------------------------|

Chorus Riff 2
e|------------------------------------|
B|------------------------------------|
G|------------------------------------|
D|---10-7-----10-8-7-8-7--------------|
A|-5------8-7------------8-7-5-7-8-10-|
E|------------------------------------|

Verse (again palm-muted whole way through; not sure about this either)
(just play each nite as long as u need. there are loads so i havent written them all in
just listen to the song)
e|------------12//////-14/////-17//////---------|
B|----------------------------------------------|
G|-7/////////-----------------------------------|
D|----------------------------------------------|
A|----------------------------------------------|
E|----------------------------------------------|

Solo
e|----8-------------8---------------|
B|------10---8-10-----10-11-10-7----|
G|-10------9------9--------------10-|
D|----------------------------------|
A|----------------------------------|
E|----------------------------------|
then...
e|----8---------------------10-13--|
B|------10---8-10---8-11-13--------|
G|-10------9------9----------------|
D|---------------------------------|
A|---------------------------------|
E|---------------------------------|

Im putting this up as an alternative to the others cos i think theres are patchy in sum 
where i reckon ive got it right but theyve got sum bits right which i couldnt quite get. 
together we have a 100% correct tab! :P

            
            
Suggest correction
Creating personal tab
Creating personal tab
You can edit any tab online and save it as your Personal.

You can edit, replace or remove any tab part or add personal notes – all changes will be seen only by you.

Personal tabs can be accessed anytime from any device, even offline.
Learn more »
comments
print report bad tab
2 comments total.
0 reply
bloogy182 437 Sep 30, 2008 01:12 PM

ok, well the 2nd verse has some playing about a bit on the G stirng mroe than ive put but cos its all pal muted its hard to hear. also i think that in the breakdown the lead guitar just hammers on 6 nd 7 on the string loads until the solo

0 reply
Ash_Lawrence 40 May 05, 2009 04:31 AM

This arrangement makes far more sense:

Chorus Riff 2
e|-----------------------------------|
B|-----------------------------------|
G|---5-------5-----------------------|
D|-----7-------8-7-8-7-----------5---|
A|-5-----8-7-----------8-7-5-7-8-----|
E|-----------------------------------|

guest
You may want to rate the tab now too:
select rating
Wanna post a correction for this tab? Suggest correction