Oops, an error
Loading. Please wait.

Talons tab

version 4
version 4

Whole song

Interactive

2,543 views 1 this week
no commentswrite comment
1 2 3 4 5
x 5
add to favorites
×
Save as Personal and add changes to this tab that will be seen only by you. Learn more ›
×
You can save this tab as Personal to edit and correct it or add notes. All changes will be seen only by you. Learn more »
launch autoscroll
font size
0
reset
how to read this tab
guitar tuner
edit
Autoscroll
slow
fast
+/-
esc
set tempo
stop
Author
Difficulty
This might not be all 100% correct, but I've corrected some of the wrong bits that me 
my mate did on our other tab of this song, so here goes...

Guitar 1 - Kele Okereke
Intro/Chorus
For the Intro and Chorus, you play this part 3 times, then play the other part once :)
e|----------------------------------|
B|----------------------------------|
G|7-9-10-12-10-9-7-5--7-9-7-5-7-9-5-|
D|7-9-10-12-10-9-7-5--7-9-7-5-7-9-5-|
A|----------------------------------|
E|----------------------------------|

e|---------------------------------------------------|
B|---------------------------------15--15-----17--17-|
G|7-9-10-12-10-9-7-/14-12-10-9-7-14--14--14/16--16---|
D|7-9-10-12-10-9-7-/14-12-10-9-7---------------------|
A|---------------------------------------------------|
E|---------------------------------------------------|

Verse - I'm not so sure about this....
e|------------------------|
B|10----10----6-----5-----|
G|10----10----7-----5-----|
D|10----10----7-----5-----|
A|------------------------|
E|------------------------|

Pre-Chorus - With lots of distortion
e|------------------------------------------|
B|------------------------------------------|
G|7----7-----------------7----7-------------|
D|7----7-----8-----5-----7----7-----8-----10|
A|5----5-----8-----5-----5----5-----8-----10|
E|-----------6-----3----------------6-----8-|

Before the Bridge
Tremolo picking while pulling off rapidly to fret below
I'm not sure if he sticks on 22 or not, just improvise :/
e|--------------------------------------------------------|
B|3~--------6~--------9~--------13~-----16~----19~-----22~|
G|--------------------------------------------------------|
D|--------------------------------------------------------|
A|--------------------------------------------------------|
E|--------------------------------------------------------|

Bridge
e|--------------------|
B|--------------------|
G|--------------------|
D|15~-------17~-------|
A|13~--15~--15~--17~--|
E|-----13~-------15~--|X3

e|-----------------|
B|-----------------|
G|-----------------|
D|15~--------------|
A|13~---15~--14~---|
E|------13~--12~---|X1

Last Chorus
e|-------------------|
B|-------------------|
G|7-9-10-12-10-9-7-5-|
D|7-9-10-12-10-9-7-5-|
A|-------------------|
E|-------------------|Repeated

Guitar 2 - Russell Lissack (Legend!!!!)

Intro/Chorus
e|---------------------------------------------------|
B|---------------------------------------------------|
G|77777-17-17-17-1414141414-------17-17-17-1414141414|
D|xxxxx-xx-xx-xx-xxxxxxxxxx-88888-xx-xx-xx-xxxxxxxxxx|
A|55555-15-15-15-1212121212-xxxxx-15-15-15-1212121212|
E|--------------------------66666--------------------|

Verse
Use palm muting and weird effects
This isn't played, but does fit.
e|----------------------------------------|
B|----------------------------------------|
G|7~---------------5~---------3~----------|
D|----------------------------------------|
A|----------------------------------------|
E|----------------------------------------|x2

e|----------------------------|
B|----------------------------|
G|----------------------------|
D|7~-------85~------73~-------|
A|----------------------------|
E|----------------------------|x2

Just in case you want it, this is the glockenspiel parT
Russell plays this in verse 2 with effects on, not sure which ones tho :/
e|8------------------------------------10-12-10----10----|
B|--10----8-10-11-10-8----8-10------13----------13----10-|
G|-----10--------------10------10-9----------------------|
D|-------------------------------------------------------|
A|-------------------------------------------------------|
E|-------------------------------------------------------|

Pre-Chorus
e|--8---------8------------------------------|
B|----10--------11-10-11-10-------------10---|
G|7------10-9---------------10-------10----10|
D|-----------------------------12-10---------|
A|-------------------------------------------|
E|-------------------------------------------|

e|--8---------8-----------------------------------|
B|----10--------11-10-11-10-----------------------|
G|7------10-9---------------10------------10101212|
D|-----------------------------12-10101212--------|
A|------------------------------------------------|
E|------------------------------------------------|

Bridge/Solo
e|---8--------------8---------------|
B|-----10----8-10-----10-11-10------|
G|10--------------9------------12-10|
D|--------10------------------------|
A|----------------------------------|
E|----------------------------------|

e|---8--------------8---------------|
B|-----10----8-10-----10------------|
G|10--------------9------------10-12|
D|--------10-------------10-12------|
A|----------------------------------|
E|----------------------------------|

e|--8--------------8---------------|
B|----10----8-10-----10-11-10------|
G|10-------------9------------12-10|
D|-------10------------------------|
A|---------------------------------|
E|---------------------------------|

e|---8-----------------------------|
B|-----10----8-10------------------|
G|10---------------9~~~~~~~~~~~~~~~|
D|--------10-----------------------|
A|---------------------------------|
E|---------------------------------|
I think that Russell uses an effect on the last note, thats why I've put all the~~~~~~~~.

Last Chorus
e|10101010101010101010101010101010-1313131313131313-1515151515151515|
B|x-x-x-x-x-x-xx-x-x-x-x-x-x-x-x-x-x-x-x-x-x-x-x-x-x-x-x-x-x-x-xx-x-|
G|7-7-7-7-7-7-7-7-7-7-7-7-7-7-7-7--1010101010101010-1212121212121212|
D|------------------------------------------------------------------|
A|------------------------------------------------------------------|
E|------------------------------------------------------------------|

on last time
e|1010101010101010101010101010101010-131313131313-151515151817-10~|
B|x-x-x-x-x-x-x-x-x-x-x-x-x-x-x-x-x--x-x-x-x-x-x--x-x-x-x-x-x--x--|
G|7-7-7-7-7-7-7-7-7-7-7-7-7-7-7-7-7--101010101010-121212121514-7~~|
D|----------------------------------------------------------------|
A|----------------------------------------------------------------|
E|----------------------------------------------------------------|
 

            
            
Suggest correction
Creating personal tab
Creating personal tab
You can edit any tab online and save it as your Personal.

You can edit, replace or remove any tab part or add personal notes – all changes will be seen only by you.

Personal tabs can be accessed anytime from any device, even offline.
Learn more »
comments
print report bad tab
guest
You may want to rate the tab now too:
select rating
Wanna post a correction for this tab? Suggest correction