Oops, an error
Loading. Please wait.

This Modern Love tab

version 4
version 4
34,362 views 1 this week
3 commentsread comments
1 2 3 4 5
x 8
add to favorites
×
Save as Personal and add changes to this tab that will be seen only by you. Learn more ›
×
You can save this tab as Personal to edit and correct it or add notes. All changes will be seen only by you. Learn more »
launch autoscroll
font size
0
reset
how to read this tab
guitar tuner
edit
Autoscroll
slow
fast
+/-
esc
set tempo
stop
Difficulty
intermediate
By popular demand, here is a tab for the first half of the acoustic version of This 
Love as seen on YouTube. (http://youtube.com/watch?v=rUDVARUHEGY&feature=related)

The timing is genius, but it’s the toughest part. Watch the video on YouTube as a guide.

I did this mainly by ear and it’s my first tab, but I think I got it. I have yet to 
the bridge and ending but I’m hoping someone can figure it out and add it to this.  Enjoy!

Standard Tuning

Intro/Verse
E|--------------------------------------------------------------------|
B|--------------------------------------------------------------------|
G|-----------------------------------0---0---0---0---2---2---2---0----|
D|--2---2---2---2---2---2---2---2--2---2---2---2---3---3---3---3------|
A|3---3---3---3---3---3---2---2---------------------------------------|
E|--------------------------------------------------------------------|

E|--------------------------------------------------------------------|
B|--------------------------------------------------------------------|
G|--------------------------------------------------------------------|
D|--2---2---2---2---2---2---2---2---2---2---2---2---------------------|
A|3---3---3---3---3---3---2---2---0---0---0---0-----------------------|
E|--------------------------------------------------------------------|

Repeat

Verse
E|--------------------------------------------------------------------|
B|1-------1-------0-------1-------1-------1-------0-------1-----------|
G|----0-------0-------0-------0-------0-------0-------0-------0-------|
D|----------------------------------2---2---2---2---3---3---3---2-----|
A|--3---3---3---3---3---3---3---2-------------------------------------|
E|--------------------------------------------------------------------|

E|--------------------------------------------------------------------|
B|1-------1-------0-------1-------1-------1---------------------------|
G|----0-------0-------0-------0-------0-------0-----------------------|
D|--------------------------------------------------------------------|
A|--3---3---3---3---3---3---3---2---0---0---0---0---------------------|
E|--------------------------------------------------------------------|

Repeat

Chorus
E|-------3--1--0--0------0-0--------3--1--0-------0-------------------|
B|---------------1--1----1-1----------------1----1-1------------------|
G|-----0-----------------0-0------0-------------2---2-----------------|
D|--2--------------------0-0----2--------------2-----2----------------|
A|3----------------------2-2--3---------------0-----------------------|
E|---------------------3-3-3------------------------------------------|

E|-------3--1--0--0------0-0----0--1--0--3----------------------------|
B|---------------1--1----1-1----1-------------------------------------|
G|-----0-----------------0-0----0-------------------------------------|
D|--2--------------------0-0----2-------------------------------------|
A|3----------------------2-2--3-3-------------------------------------|
E|---------------------3-3-3------------------------------------------|

Repeat

            
            
Suggest correction
Creating personal tab
Creating personal tab
You can edit any tab online and save it as your Personal.

You can edit, replace or remove any tab part or add personal notes – all changes will be seen only by you.

Personal tabs can be accessed anytime from any device, even offline.
Learn more »
comments
print report bad tab
3 comments total.
+1 reply
UnsignedRecords 777 Mar 14, 2008 11:09 AM

this is pretty good, glad you stepped forward and tabbed it haha.

a couple things though, uh...
E|----------------------------------------------------------------|
B|1-------1-------0-------1-------1-------1-------0-------1-------|
G|----0-------0-------0-------0-------0-------0-------0-------0---|
D|----------------------------------2---2---2---2---3---3---3---2-|
A|--3---3---3---3---3---3--(2)--2---------------------------------|
E|----------------------------------------------------------------|

just a little thing, the 2 in parenthesis should be there, instead of the 3.

and the chorus should be Am, to G, to C, to Am7.

maybe i should just tab my own... ah the effort.

0 reply
BE1991 10 Aug 03, 2008 06:48 PM

Dude good job but i dont get how you play the Verse
i just play it with out using A-3 and D-2
i just dont get how you play it but its still good and i use Am, G, C, and Am7 but it doesnt sound the same so please found out how to play that :)
Verse
E|--------------------------------------------------------------------|
B|1-------1-------0-------1-------1-------1-------0-------1-----------|
G|----0-------0-------0-------0-------0-------0-------0-------0-------|
D|----------------------------------2---2---2---2---3---3---3---2-----|
A|--3---3---3---3---3---3---3---2-------------------------------------|
E|-------------------------------------------------------------------

0 reply
lierpaul 10 Sep 13, 2013 05:18 AM

I am pretty sure there is a slight mistake in the chorus.
He plays a D and then a C on the H string not two times C.

like this:

Chorus
E|-------3--1--0--0------0-0-
B|---------------3--1----1-1-
G|-----0-----------------0-0-
D|--2--------------------0-0-
A|3----------------------2-2-
E|---------------------3-3-3-

also seems like that in the video.

guest
Wanna post a correction for this tab? Suggest correction