Oops, an error
Loading. Please wait.
We have an official For The Damaged Coda tab made by UG professional guitarists. Check out the tab »
×

For The Damaged Coda tab

version 2
version 2

Whole song

  • This is a fingerstyle version of this song based on a cover of it that Gihm did.
  • A guitar adaption from what usually is played on the piano. Tab plus chords.

Interactive

11,941 views 606 this week
5 commentsread comments
1 2 3 4 5
x 19
add to favorites
×
Save as Personal and add changes to this tab that will be seen only by you. Learn more ›
×
You can save this tab as Personal to edit and correct it or add notes. All changes will be seen only by you. Learn more »
launch autoscroll
font size
0
reset
how to read this tab
guitar tuner
edit
Autoscroll
slow
fast
+/-
esc
set tempo
stop
About this tab version
This is a fingerstyle version of this song based on a cover of it that Gihm did. Was this info helpful? Yes No
Blonde Redhead (Gihm Cover) - For The Damaged Coda: https://youtu.be/5yySSdMC1ZY

IMPORTANT:
This tab is in a strange tuning, it's basically standard, but if you listen to the guitar in the video all of
the strings are tuned about an eighth to a quarter of a step up. Listen to the video closely and it's pretty 
easy to match the tuning. If you don't want to bother tuning though, it still sounds just fine standard.

[Intro]
e|-----6-----6-----6-----6-----6-----6-----6-----6-|------------------------------------------------|
B|--------8-----------8-----------8-----------8----|-----9-------9-------9-------9-------9-------9--|
G|--6-----------6-----------6-----------6----------|---------10--------------10--------------10-----|
D|-------------------------------------------------|-10--------------10--------------10-------------|
A|-------------------------------------------------|------------------------------------------------|
E|-------------------------------------------------|------------------------------------------------|

e|------------------4-----4-|----4-----4-----7-----7-----7-----7-|
B|------9-----9--------6----|-------6-----------6-----------6----|
G|---------8-----7----------|-7-----------7-----------7----------|
D|--10-----------0----------|-0-----------0-----------0----------|
A|---------6----------------|------------------------------------|
E|--8-----------------------|------------------------------------|


e|--8-----8-----6-----------4-----4-----3-----3----|----8-----8-----8-----8-----6-----6-----7-----7------|
B|-----8-----8-----6-----6-----6-----6-----3-----3-|-------9-----------9-----------6-----------6---------|
G|-----8-----0--------7-----------5-----------4----|-8-----------8-----------7-----------7---------------|
D|-------------------------------------------------|-------------------------0-----------0---------------|
A|--------------5-----------3-----------2----------|-6-----------6---------------------------------------|
E|--8----------------------------------------------|-----------------------------------------------------|


e|-------------8----------------------------8---------|-------------8----------------------------8---------|
B|---------8------11------9------8-----8h9--8---------|---------8------11------9------8-----8h9--8---------|
G|---------8------8-------8------8-----8----7--10--8--|---------8------8-------8------8-----8----7--10--8--|
D|---------10-----8-------8------8--8--8-------0------|---------10-----8-------8------8--8--8-------0------|
A|-----10--10-----8--------------6--------------------|-----10--10-----8--------------6--------------------|
E|--8------8------10--10-----10--6----------7---------|--8------8------10--10-----10--6----------7---------|


e|---------------------------------------|
B|--4-----------3------------------------|
G|--5-----------4-----7-----10p8------8--|  Chords are strummed here, refer to the video
D|--6-----------5-----6------------------|  if you want to know exactly how it's done
A|--6-----------5-----8-----------10-----| 
E|--4-----------3-----7------------------|


e|-------------8----------------------------8---------|-------------8----------------------------8---------|
B|---------8------11------9------8-----8h9--8---------|---------8------11------9------8-----8h9--8---------|
G|---------8------8-------8------8-----8----7--10--8--|---------8------8-------8------8-----8----7--10--8--|
D|---------10-----8-------8------8--8--8-------0------|---------10-----8-------8------8--8--8-------0------|
A|-----10--10-----8--------------6--------------------|-----10--10-----8--------------6--------------------|
E|--8------8------10--10-----10--6----------7---------|--8------8------10--10-----10--6----------7---------|


e|---------------------------------------|
B|--4-----------3------------------------|
G|--5-----------4-----7-----10p8------8--|  Chords are strummed here, refer to the video
D|--6-----------5-----6------------------|  if you want to know exactly how it's done
A|--6-----------5-----8-----------10-----|
E|--4-----------3-----7------------------|


e|--x-----x-----------------------------------------------8--|-------------------------------------------8--|
B|--x-----x-----------------------------------8-----------8--|-------------------------------8-----------8--|
G|--x-----x-----------5-----------3-----------8-----------7--|-------5-----------3-----------8-----------7--|
D|--x-----x--------5--5--------3--3--------8--8--------0--0--|----5--5--------3--3--------8--8--------0--0--|
A|--x-----x-----3-----3--3--5-----5--5--6-----6--------------|-3-----3--3--5-----5--5--6-----6--------------|
E|--x-----x-----------------------------------------7-----7--|-------------------------------------7-----7--|


e|-------------------------|
B|--4-----------3----------|
G|--5-----------4-----7----|  Chords are strummed here, refer to the video    
D|--6-----------5-----6----|  if you want to know exactly how it's done
A|--6-----------5-----8----|
E|--4-----------3-----7----|



************************************

| h  Hammer-on
| p  Pull-off
| x  Dead note

************************************

For their editing help, thanks to:
evfidripiy
TheShadowvaultAwaits

            
            
Suggest correction
Creating personal tab
Creating personal tab
You can edit any tab online and save it as your Personal.

You can edit, replace or remove any tab part or add personal notes – all changes will be seen only by you.

Personal tabs can be accessed anytime from any device, even offline.
Learn more »
comments
print report bad tab
5 comments total. Showing first comments.
+1 reply
NosferatuZodd09 1,248 Jul 09, 2017 07:53 AM

seems pretty accurate man thanks a lot

+5 reply
mishamuchaize 10 Sep 11, 2017 02:51 PM

for the morty its really good !!

0 reply
GIULIO20801 10 Sep 18, 2017 04:26 PM

good job mate

guest
You may want to rate the tab now too:
select rating
Wanna post a correction for this tab? Suggest correction