Oops, an error
Loading. Please wait.
We have an official One Way Or Another tab made by UG professional guitarists. Check out the tab »
×
by Blondie
17,874 views 3 this week
no commentswrite comment
1 2 3 4 5
x 3
add to favorites
×
Save as Personal and add changes to this tab that will be seen only by you. Learn more ›
×
You can save this tab as Personal to edit and correct it or add notes. All changes will be seen only by you. Learn more »
launch autoscroll
font size
0
reset
guitar tuner
backing track
0:00
0:00
edit
Autoscroll
slow
fast
+/-
esc
set tempo
stop
Author
Difficulty
Tabbed By: Chaos Calls

E-mail: brookie_050@hotmail.co.uk

Tuning: Standard

Song Length: 3.38 (Fades out)

Note: This is a basic bassline for this song; there are probably better tabs available. 
tab is to give a basis for the song, and while it is giggable (It's the tab I'm planning 
play when my band start gigging this song) there is more to the bassline than I have tabbed here.

Tab:

Intro:
G|-----------------------------------------------------------------------|
D|-----------------------------------------------------------------------|
A|-5-4-3-2-22222222222345------------------------------------------------|
E|-----------------------------------------------------------------------|

Riff 1:
G|-----------------------------------------------------------------------|
D|-----------------------------------------------------------------------|
A|-55--55--55--555543222--22--22--22(2345)-------------------------------|
E|---55--55--55---------22--22--22---------------------------------------|

On last play through in each section (See play order below), miss bracketed notes, as 
are a link between repetitions of this riff.

Riff 2:
G|-----------------------------------------------------------------------|
D|-----------------------------------------------------------------------|
A|-----2---2-4-2-0---------2---2-4-2-0---------0-2-----------------------|
E|-3---------------2---3---------------2---2-3-----0-2-------------------|

Bridge:
G|-----------------------------------------------------------------------|
D|-----------------------------------------------------------------------|
A|-----------------0-0--0--4-4--4----------------0-0--0--4-4--4-2-22222--|
E|-2-2--2--2-2--2-----------------2-2--2--2-2--2-------------------------|

G|-----------------------------------------------------------------------|
D|-----------------------------------------------------------------------|
A|--------------------------0000000000000000-2222222222222345------------|
E|-0---0-00--2-2--2--2-2--2----------------------------------------------|

Riff 3

G|-----------------------------------------------------------------------|
D|-----------------------------------------------------------------------|
A|-5-5-5-532-2-2-24------------------------------------------------------|
E|--5-5-5---2-2-2--------------------------------------------------------|

Note: Spacings withing the tab may not be acurate to your play style (they're not to 
either), however, I figured they'd help break up the tab a bit and make it easier to read.

Play Order:

Intro
Riff 1 x3
Riff 2
Riff 1 x2
Riff 2
Bridge
Riff 1 x2
Riff 3 x8/12 (Fades out for last 4)

Thanks for using this tab, any feedback would be appreciated, as would any tab requests 
guarentees, but I'll see what I can do!)

Rock On!

            
            
Suggest correction
Creating personal tab
Creating personal tab
You can edit any tab online and save it as your Personal.

You can edit, replace or remove any tab part or add personal notes – all changes will be seen only by you.

Personal tabs can be accessed anytime from any device, even offline.
Learn more »
Give kudos to tab author, rate the tab!
1 2 3 4 5
comments
print report bad tab
guest
You may want to rate the tab now too:
select rating
Wanna post a correction for this tab? Suggest correction