Oops, an error
Loading. Please wait.

Cecilia And The Silhouette Saloon tab

3,099 views 1 this week
2 commentsread comments
1 2 3 4 5
1 last vote to show rating
add to favorites
×
Save as Personal and add changes to this tab that will be seen only by you. Learn more ›
×
You can save this tab as Personal to edit and correct it or add notes. All changes will be seen only by you. Learn more »
launch autoscroll
font size
0
reset
how to read this tab
guitar tuner
edit
Autoscroll
slow
fast
+/-
esc
set tempo
stop
Author
Difficulty
The Blood Brothers - Cecilia And The Silhouette Saloon

Tabbed by Mike


(do this whole part 4 times)|from     |
    x6              |0:48-1:12|1:32-1:50            |1:51-2:00-----------------------|
e|--------------------------|-xx------|-------------------------|--------------------|
B|--------------------------|-xx------|-------------------------|--------------------|
G|-8-55------5x5x3xx3-------|-xx------|-------------------------|--------------------|
D|-8-55-5----3x3x1xx1-------|-xx------|-1----1--------1------1--|-1--1-3-1-1-3-1-1-3-|
A|-6-33-3-------------------|-xx------|--33---33-------33---3-3-|--3------3----3-----|
E|------3-------------------|-xx------|----3(pm)3(pm)----3-3----|--------------------|

  2:01-2:14	|2:21-2:29
e|--------3-----|--------------------------------------------------------------------|
B|----4-------4-|-13-12-16--44444444444444443333333311111111444444441111111100000000-|
G|------5-------|--------------------------------------------------------------------|
D|--------------|--------------------------------------------------------------------|
A|-3------------|--------------------------------------------------------------------|
E|--------------|--------------------------------------------------------------------|
  (The timing is retarded from here on... good luck)

  2:33-3:04
e|---|------------------------------------------------------------------------------|
B|-1-|----4-----4--------4------4---------------------------------------------------|
G|---|---------------5---------------5----------------------------------------------|
D|---|------------------------------------------------------------------------------|
A|---|------------------------------------------------------------------------------|
E|---|------------------------------------------------------------------------------|
   ^^^
  let the the 1 go into feedback

			|(do this whole part 2 times)|      x8|
   3:14-3:18        |(3:19-3:38)           | 3:39-3:46|3:47-3:57|3:58-4:27-----------|
e|----------------------|--------------------------|----------|---------|--xx--------|
B|----------------------|--------x6----------------|----------|---------|--xx--------|
G|----5-5----5-5----5-55|-8-55--/---5x5x3xx3-------|-8-5---/7-|-----5---|--xx-5------|
D|-444445444444544444454|-8-55-5----3x3x1xx1-------|-8-5-5-/5-|------45-|--xx-5------|
A|----------------------|-6-33-3-------------------|-6-3-5----|-3333----|--xx--------|
E|----------------------|------3-------------------|-----3----|-(p m)---|--xx--------|
							(Listen to the song for timing^^^)


   4:28-4:49		Repeat until the end of the song. (about 3 times)
e|----------------------------------------------------------------------------------|
B|----------------------------------------------------------------------------------|
G|-5^6^555---5^6^555-----5^6^555----5^6^555-----------------------------------------|
D|-5^6^555-3-5^6^555-3-3-5^6^555-3h55^6^555-----------------------------------------|
A|--------3-----------3---------3---------------------------------------------------|
E|----------------------------------------------------------------------------------|


Have fun with that... tabbed by mike

            
            
Suggest correction
Creating personal tab
Creating personal tab
You can edit any tab online and save it as your Personal.

You can edit, replace or remove any tab part or add personal notes – all changes will be seen only by you.

Personal tabs can be accessed anytime from any device, even offline.
Learn more »
Give kudos to tab author, rate the tab!
1 2 3 4 5
comments
print report bad tab
2 comments total.
0 reply
kiefermatot 10,367 Jun 22, 2006 04:50 PM

Not bad.

0 reply
hxcloverxx 51 Jul 12, 2006 09:41 PM

I second the comment before

guest
You may want to rate the tab now too:
select rating
Wanna post a correction for this tab? Suggest correction