Oops, an error
Loading. Please wait.

Huge Gold Ak-47 tab

804 views 1 this week
1 commentread comment
1 2 3 4 5
x 3
add to favorites
×
Save as Personal and add changes to this tab that will be seen only by you. Learn more ›
×
You can save this tab as Personal to edit and correct it or add notes. All changes will be seen only by you. Learn more »
launch autoscroll
font size
0
reset
how to read this tab
guitar tuner
edit
Autoscroll
slow
fast
+/-
esc
set tempo
stop
Author
Difficulty
Band:The Blood Brothers
Song:Huge Gold AK-47
Album:Young Machetes (2006)

standard tuning

Intro: clean
e-----------------------------------|
B-----------------------------------|
G-----------------------------------|
D-----------------------------------|
A-----------------------------------|
E--9999--7777-55-333--1111--0000----|

Verse:clean
e------------------------------------|
B------------------------------------|
G------------------------------------|
D------------------------------------|
A----------------------1111----------|
E--9999--7777--5-3333--------0000----|

e------------------------------------|
B------------------------------------|
G------------------------------------|
D------------------------------------|
A------------------------------------|
E--9999--11-11-11-11--7777-----------|

e------------------------------------|
B------------------------------------|
G------------------------------------|
D------------------------------------|
A----------------------1111----------|
E--9999--7777--5-3333--------0000----|

Chorus:clean
e-----------------------------------|
B-----------------------------------|
G-----------------------------------|
D-----------------------------------|
A-----------2-2----------2-2--------|
E--99999999-----99999999------------|

The outro to the chorus is just the bass playing so you don't have to worry about 
that part.

Verse:clean
e------------------------------------|
B------------------------------------|
G------------------------------------|
D------------------------------------|
A----------------------1111----------|
E--9999--7777--5-3333--------0000----|

e------------------------------------|
B------------------------------------|
G------------------------------------|
D------------------------------------|
A------------------------------------|
E--9999--11-11-11-11--7777-----------|

e------------------------------------|
B------------------------------------|
G------------------------------------|
D------------------------------------|
A----------------------1111----------|
E--9999--7777--5-3333--------0000----|


Chorus:clean
e-----------------------------------|
B-----------------------------------|
G-----------------------------------|
D-----------------------------------|
A-----------2-2----------2-2--------|
E--99999999-----99999999------------|

Bridge:clean
e-----------------------------------------------------|
B-----------------------------------------------------|
G-----------------------------------------------------|
D-----------------------------------------------------|
A-----------------------------------------------------|
E--5-x-x-5-x-x-5--9--5-x-x-5-x-x-5--7--5-x-x-5-x-x-5--|

e------------------------------------------|
B------------------------------------------|
G------------------------------------------|
D------------------------------------------|
A------------------------------------------|
E--5555--99--5555--77--5555--99--5555--77--|

The next part of the bridge is just mostly guitar feedback with heavy bass
Then comes this part:play it with a bit of distortion

e-----------------------|
B-----------------------|
G-----------------------|
D-----------------------|
A--5--5--5--5--5--5--5--|
E--3--3--3--3--3--3--3--|

Chorus:clean
e-----------------------------------|
B-----------------------------------|
G-----------------------------------|
D-----------------------------------|
A-----------2-2----------2-2--------|
E--99999999-----99999999------------|


If you have any questions, comments, or corrections, please contact me at chrissk899@aol.com

            
            
Suggest correction
Creating personal tab
Creating personal tab
You can edit any tab online and save it as your Personal.

You can edit, replace or remove any tab part or add personal notes – all changes will be seen only by you.

Personal tabs can be accessed anytime from any device, even offline.
Learn more »
Give kudos to tab author, rate the tab!
1 2 3 4 5
comments
print report bad tab
1 comment total.
0 reply
consecutive e 110 Aug 19, 2014 06:07 PM

Lack of accuracy. Tab incomplete. Clearly wrong.

guest
You may want to rate the tab now too:
select rating
Wanna post a correction for this tab? Suggest correction