Oops, an error
Loading. Please wait.

Love Rhymes With Hideous Car Wreck bass

version 3
version 3

Whole song

Interactive

838 views 1 this week
no commentswrite comment
1 2 3 4 5
2 more votes to show rating
add to favorites
×
Save as Personal and add changes to this tab that will be seen only by you. Learn more ›
×
You can save this tab as Personal to edit and correct it or add notes. All changes will be seen only by you. Learn more »
launch autoscroll
font size
0
reset
guitar tuner
edit
Autoscroll
slow
fast
+/-
esc
set tempo
stop
Artist: The Blood Brothers
Song: Love Rhymes with Hideous Car Wreck
Tabber: Max Kao

I play this in a higher position to get that less twangy g-string sound,
so all them 10101010 are 10’s (tens)


0:24 - mid-verse – “you bid her farewell…”
G|----------------|----------------|----------------|----------------|
D|--------------8-|8-8-8-8-8-8---10|1010101010101010|8-8-8-8-8-8-8-8-|
A|10101010101010--|------------10--|----------------|----------------| 4x
E|----------------|----------------|----------------|----------------|
  1 + 2 + 3 + 4 + |1 + 2 + 3 + 4 + |1 + 2 + 3 + 4 + |1 + 2 + 3 + 4 + |


No bass for the love chorus


1:11 – verse – “and jean said…”
G|----------------|----------------|----------------|----------------|
D|--------------8-|8-8-8-8-8-8---10|1010101010101010|8-8-8-8-8-8-8-8-|
A|10101010101010--|------------10--|----------------|----------------| 3x
E|----------------|----------------|----------------|----------------|
  1 + 2 + 3 + 4 + |1 + 2 + 3 + 4 + |1 + 2 + 3 + 4 + |1 + 2 + 3 + 4 + |

1:32 – “well some things never get better…”
G|----------------|----------------|----------------|----------------|
D|--------------8-|8---8---8~----10|1010101010101010|8-8-8-8-8-8-8-8-|
A|10--10--10--10--|------------10--|----------------|----------------|
E|----------------|----------------|----------------|----------------|
  1 + 2 + 3 + 4 + |1 + 2 + 3 + 4 + |1 + 2 + 3 + 4 + |1 + 2 + 3 + 4 + |

G|----------------|----------------|----------------|----------------|
D|--------------8-|8-8-8-8-8-8---10|1010101010101010|8-8-8-8-8-8-8-8-|
A|10101010101010--|------------10--|----------------|----------------|
E|----------------|----------------|----------------|----------------|
  1 + 2 + 3 + 4 + |1 + 2 + 3 + 4 + |1 + 2 + 3 + 4 + |1 + 2 + 3 + 4 + |

1:46 – “and back at the hospital…”
G|----------------|----------------|----------------|----------------|
D|----------------|----------------|----------------|8~--------------|
A|10----108~----8-|10----8-10------|10----108~------|--------10~-----|
E|----------------|----------------|----------------|----------------|
  1 + 2 + 3 + 4 + |1 + 2 + 3 + 4 + |1 + 2 + 3 + 4 + |1 + 2 + 3 + 4 + |

G|----------------|----------------|----------------|----------------|
D|----------------|----------------|----------------|----------------|
A|10----108-------|10------10------|10----108-------|10~-------------|
E|----------------|----------------|----------------|----------------|
  1 + 2 + 3 + 4 + |1 + 2 + 3 + 4 + |1 + 2 + 3 + 4 + |1 + 2 + 3 + 4 + |

G|----------------|----------------|----------------|----------------|
D|----------------|8-8-8-8---------|----------------|101010108-8-8-8-|
A|101010108-8-8-8-|--------10101010|101010108-8-8-8-|----------------|
E|----------------|----------------|----------------|----------------|
  1 + 2 + 3 + 4 + |1 + 2 + 3 + 4 + |1 + 2 + 3 + 4 + |1 + 2 + 3 + 4 + |

G|----------------|----------------|----------------|----------------|
D|----------------|8-8-8-8---------|101010108-8-8-8-|----------------|
A|101010108-8-8-8-|--------10101010|----------------|1010101010101010|
E|----------------|----------------|----------------|----------------|
  1 + 2 + 3 + 4 + |1 + 2 + 3 + 4 + |1 + 2 + 3 + 4 + |1 + 2 + 3 + 4 + |

2:14 - interlude - weird syncopation, so rhythmic writing might not be right, but you'll 
it real easy just by listening to the guitar
G|----------------|----------------|----------------|----------------|
D|----------------|----------------|----------------|----------------|
A|----------------|----------------|----------------|----------------| 2x
E|3--3--3-2--2--2-|5--5--5-6--6--6-|3--3--3-3--5--3-|2--2--2-2--2--2-|
  1 + 2 + 3 + 4 + |1 + 2 + 3 + 4 + |1 + 2 + 3 + 4 + |1 + 2 + 3 + 4 + |

G|----------------|----------------|----------------|----------------|
D|----------------|----------------|----------------|----------------|
A|----------------|----------------|----------------|----------------|
E|3--3--3-2--2--2-|5--5--5-6-----2-|3--3--3-3--5--3-|2--2--2-2--2--2-|
  1 + 2 + 3 + 4 + |1 + 2 + 3 + 4 + |1 + 2 + 3 + 4 + |1 + 2 + 3 + 4 + |

G|----------------|----------------|----------------|----------------|
D|----------------|----------------|----------------|----------------|
A|----------------|----------------|----------------|----------------|
E|3--3--3-2--2--2-|5--5--5-6~----2-|3--3--3-3--5--3-|2--2--2-2--2--2-|
  1 + 2 + 3 + 4 + |1 + 2 + 3 + 4 + |1 + 2 + 3 + 4 + |1 + 2 + 3 + 4 + |


last love chorus with no bass


3:10 – “ohhhhh…”
G|----------------|----------------|
D|7-7-7-7-7-7-7-7-|7-7-7-7-7-7-7-7-|
A|----------------|----------------|
E|----------------|----------------|
  1 + 2 + 3 + 4 + |1 + 2 + 3 + 4 + |


hope it's alright

            
            
Suggest correction
Creating personal tab
Creating personal tab
You can edit any tab online and save it as your Personal.

You can edit, replace or remove any tab part or add personal notes – all changes will be seen only by you.

Personal tabs can be accessed anytime from any device, even offline.
Learn more »
Give kudos to tab author, rate the tab!
1 2 3 4 5
comments
print report bad tab
guest
Wanna post a correction for this tab? Suggest correction