Oops, an error
Loading. Please wait.

Vital Beach tab

1,171 views 6 this week
no commentswrite comment
1 2 3 4 5
1 last vote to show rating
add to favorites
×
Save as Personal and add changes to this tab that will be seen only by you. Learn more ›
×
You can save this tab as Personal to edit and correct it or add notes. All changes will be seen only by you. Learn more »
launch autoscroll
font size
0
reset
how to read this tab
guitar tuner
edit
Autoscroll
slow
fast
+/-
esc
set tempo
stop
Author
Difficulty
-------------------------------------------------------------------------------
                             Vital Beach - The Blood Brothers
-------------------------------------------------------------------------------
Tabbed by: Josh Houdek
Email: joshhoudek@gmail.com

This song's pretty simple, so here's all the parts, just piece together where they come
on your own.
If anyone can improve upon what I've got, I'm all ears, but this is at least 90%
imo.

Tuning: Standard
I think it's in the key of E flat, the notes in it are: Ab Bb C D Ed F G

Intro/Main Riff:

e|--------------------------------------------------------------------------------------|
B|--------------------------------------------------------------------------------------|
G|--------------------------------------------------------------------------------------|
D|----------3---------------3-----------------------------------------------------------|
A|--------5---------------5---6---------------------------------------------------------|
E|-3--3h4------x3--3--3h4---------------------------------------------------------------|

(Note: When the first part of this is played at 0:45, there's a G added at the end of 
pattern
which you can play as either an open G, or the 5th fret on the D string)

Verse Riff B:

e|-3----------------3-------3-----------3------------------------------------------|
B|---3h4-3-1--x2------3h4-3---------------3h4-1------------------------------------|
G|---------------------------------------------------------------------------------|
D|---------------------------------------------------------------------------------|
A|---------------------------------------------------------------------------------|
E|---------------------------------------------------------------------------------|

Pre chorus the first time, at 0:48:

e|-3--------------------------------------------------------------------------------|
B|---3h4-3--------------------------------------------------------------------------|
G|----------------------------------------------------------------------------------|
D|-------0--------------------------------------------------------------------------|
A|----------------------------------------------------------------------------------|
E|----------------------------------------------------------------------------------|

pre chorus at 1:32:

e|-------------------------------------------------------------|
B|-------------------------------------------------------------|
G|-12------8-----10-----5-----12-----7-----8-----10-----12-----|
D|-12------8-----10-----5-----12-----7-----8-----10-----12-----|
A|-10--x8--6-x8---8-x8--3-x8--10-x8--5-x8--6-x4---8-x4--10-x5--|
E|-------------------------------------------------------------|

Chorus:

e|--------------------------------------------------------------------------------------|
B|--------------------------------------------------------------------------------------|
G|-3-----4-----5------------------------------------------------------------------------|
D|-3-----4-----5-----------3-----4-----5------------------------------------------------|
A|-1-x2--2-x2--3-x4--------3-----4-----5------------------------------------------------|
E|-------------------------1-x2--2-x2--3-x4---------------------------------------------|

(Note: listen to the song and repeat the progressions as necessary...it's pretty easy 
you listen to it)


Outro chorus thing at 2:10:

e|-----------------------------|
B|-----------------------------|
G|--8-----7-----12-----10------|
D|--8-----7-----12-----10------|
A|--6-x8--5-x8--10-x8---8--x8--|
E|-----------------------------|

| h  hammer-on
| p  pull-off
===============================================================================

            
            
Suggest correction
Creating personal tab
Creating personal tab
You can edit any tab online and save it as your Personal.

You can edit, replace or remove any tab part or add personal notes – all changes will be seen only by you.

Personal tabs can be accessed anytime from any device, even offline.
Learn more »
Give kudos to tab author, rate the tab!
1 2 3 4 5
comments
print report bad tab
guest
You may want to rate the tab now too:
select rating
Wanna post a correction for this tab? Suggest correction