Oops, an error
Loading. Please wait.

She Speaks To Me tab

1,189 views 1 this week
1 commentread comment
1 2 3 4 5
1 last vote to show rating
add to favorites
×
Save as Personal and add changes to this tab that will be seen only by you. Learn more ›
×
You can save this tab as Personal to edit and correct it or add notes. All changes will be seen only by you. Learn more »
launch autoscroll
font size
0
reset
how to read this tab
guitar tuner
edit
Autoscroll
slow
fast
+/-
esc
set tempo
stop
Author
Difficulty
Artist:Blood Has Been Shed
Album:Spirals
Song:She Speaks To Me
Tabbed by:Ed Messina

Riff 1 (both)
D--------     ------|
A-------- x15 ------| play the 16th time
F--------     ------|
C-00-0-0-     -00-0-|
G-00-0-0-     -00-0-|
C-00-0-0-     -00-0-|
  ..           ..

Riff 2 (both)
D-----------|
A-----------| play once
F-----------|
C-0-00-0000-|
G-0-00-0000-|
C-0-00-0000-|
  . .. ....

Riff 3 (both)
D--------------------------|
A--------------------------|
F--------------------------| (play it strate through no pauses)
C-000000000000000000000000-
G-000000000000000000000000-
C-000000000000000000000000-
  ........................

riff 4 (both)
D---------------------------    -------|
A--------------------------- x2 -------|
F---------------------------    -------|
C-3-2/12-3-2/10-3-2/8-3-2/7-    -2-3-2-|
G-3-2/12-3-2/10-3-2/8-3-2/7-    -2-3-2-|
C-3-2/12-3-2/10-3-2/8-3-2/7-    -2-3-2-|
  . .    . .    . .   . .        . . .

riff 5 (both)
D-------------------------    -------------------------|
A-------------------------    -------------------------|
F------------------------- x3 -------------------------|
C-------------------0-2-3-    -------------------2-3-2-|
G----4t----2t-------0-2-3-    ----4t----2t-------2-3-2-|
C-00----00----00-7t-0-2-3-    -00----00----00-7t-2-3-2-|
  ..    ..    ..    .          ..    ..    ..

riff 6 (both)
D-------|
A-------|
F-------| x8
C-2-3-2-|
G-2-3-2-|
C-2-3-2-|

riff 3 (both)
D--------------------------|
A--------------------------|
F--------------------------| (play it strate through no pauses)
C-000000000000000000000000-
G-000000000000000000000000-
C-000000000000000000000000-
  ........................

riff 7 (both)
D----
A----
F---- x8
C-00-
G-00-
C-00-
  ..

riff 8 (both) (same as riff 1 but shorter)
D--------|
A--------|
F--------| x2
C-00-0-0-|
G-00-0-0-|
C-00-0-0-|
  ..

riff 1 (both)
D--------|
A--------|
F--------| x10
C-00-0-0-|
G-00-0-0-|
C-00-0-0-|
  ..

Riff 2 (both)
D-----------|
A-----------|
F-----------| x7
C-0-00-0000-|
G-0-00-0000-|
C-0-00-0000-|
  . .. ....

riff 9 (both)
D------------------|
A------------------|
F------------------|
C-0000000000000000-
G-0000000000000000-
C-0000000000000000-

Riff 10 (guitar 1)
D---------------------------------------------------------------------|
A---------------------------------------------------------------------|
F-xx-6666-xx-6666-xx-6/4-xx-4444-xx-4444-xx-4/2-xx-2222-xx-2222-xx-22-|
C-xx-xxxx-xx-xxxx-xx-x/x-xx-xxxx-xx-xxxx-xx-x/x-xx-xxxx-xx-xxxx-xx-xx-|
G-xx-4444-xx-4444-xx-4/2-xx-2222-xx-2222-xx-2/0-xx-0000-xx-0000-xx-00-|
C---------------------------------------------------------------------|

Riff 10 (guitar 1) CONT.
D-----------------------|
A-----------------------|
F-----------------------| x4
C-xx-6666-xx-6666-xx-66-|
G-xx-xxxx-xx-xxxx-xx-xx-|
C-xx-6666-xx-6666-xx-66-|

Riff 10 (guitar 2)
D-----------|
A-----------|
F-----------| x16
C-0-00-0000-|
G-0-00-0000-|
C-0-00-0000-|
  . .. ....

            
            
Suggest correction
Creating personal tab
Creating personal tab
You can edit any tab online and save it as your Personal.

You can edit, replace or remove any tab part or add personal notes – all changes will be seen only by you.

Personal tabs can be accessed anytime from any device, even offline.
Learn more »
Give kudos to tab author, rate the tab!
1 2 3 4 5
comments
print report bad tab
1 comment total.
-1 reply
kevinbacon 10 May 04, 2010 06:49 AM

how could anybody rate this 5 stars?

first of all, the guitar tuning is in B. the first thing i noticed when i tried this tab out was the guitar tuning was WAY off. i didnt think tuning to open chugs was so difficult.

it doesnt matter if it's Dropped, or B Standard, but i choose B Standard as dropped tuning is for pussies :)

the first riff uses chug patterns like:

B-|----------------------------
Gb|----------------------------
D-|----------------------------
A-|----------------------------
E-|2--2--222-222-2--2--222-222-
B-|0--0--000-000-0--0--000-000-(etc)
. . ... ... . . ... ...

riff #2 is kinda tough to hear, but i believe it is:

B-|----------
Gb|----------
D-|----------
A-|----------
E-|2-43-4343-
B-|0-21-2121-
. .. ....


this is followed by a riff that i cannot figure out for the life of me, but i can assure you it is not just open 0's the whole way through.

the next riff is:
B-|
Gb|
D-|--4~------------
A-|--2~--4~--6~--3~
E-|34--342~344~341~
B-|12--12--12--12-- x4, then
.. .. .. ..

B-|------
Gb|------
D-|------
A-|------
E-|4-6-3-
B-|2-4-1- x1

. . .

B-|----------------------
Gb|--------------------------
D-|--------------------------
A-|--2h3p2--0h1p0------------
E-|2------2------2-2h3p22-3/4
B-|0------0------0------0-1/2 x4


B-|------
Gb|----------
D-|----------
A-|----------
E-|2-3/42-3/4
B-|0-1/20-1/2


that is all i have thus far...after aprox. 30 minutes of learning this by ear.

to whoever tabbed this, you truely HALF ASSED this tab

guest
You may want to rate the tab now too:
select rating
Wanna post a correction for this tab? Suggest correction