Oops, an error
Loading. Please wait.

Lady Nightshade tab

396 views 1 this week
1 commentread comment
1 2 3 4 5
x 3
add to favorites
×
Save as Personal and add changes to this tab that will be seen only by you. Learn more ›
×
You can save this tab as Personal to edit and correct it or add notes. All changes will be seen only by you. Learn more »
launch autoscroll
font size
0
reset
how to read this tab
guitar tuner
edit
Autoscroll
slow
fast
+/-
esc
set tempo
stop
BLOOD OF THE MARTYRS
LADY NIGHTSHADE
please provide us with a link to the official website of this band in your tab below and 
click on Submit Your Tab button again
***
they dont have one that I can find other than myspace or facebook but they are signed to 
dark slate records

A#-F-A#-Eb-G-C

*=PALM MUTE

TABBED BY-andherembrace


L
--------------------------------------------------------|
--------------------------------------------------------|
--------------------------------------------------------|
-0------------------0---------0-----------0-------------|
-0------------------0---------0-----------0-------------|
-0------------------0---------0-----------0-------------|
R
--------------------------------------------------------|
-----------5------------------5-------------------------|
-----------8------------------8-------------------------|
-0------------------0---------------------0-------------|
-0------------------0---------------------0-------------|
-0------------------0---------------------0-------------|


0:17
B
------------------------------------------------------------------|
---------10--------------10---10----------10--------------10---10-|
---------13------------13---13------------13------------13---13---|
-***-***-----***---***------------***-***-----***---***-----------|
-000-000-----000---000------------000-000-----000---000-----------|
-000-000-----000---000------------000-000-----000---000-----------|

------------------------------------------------------------------|
---------10--------------10---10----------10----------------------|
---------13------------13---13------------13----------------------|
-***-***-----***---***------------***-***-----***---***-----------|
-000-000-----000---000------------000-000-----000---000-----------|
-000-000-----000---000------------000-000-----000---000-----------|

0:30
-----------------------------------|
-------------------------10---10---|
-----------------------13---13-----|
-***-***-----***---***-------------|
-000-000-----000---000-------------|
-000-000-----000---000-------------|


0:33
----------------------------------------------------------|
----------------------------------------------------------|
----------------------------------------------------------|
----------------------------------------------------------|
-*-*-*-*-*-*-*-*-*-*-*-*---------*-*-*-*-*-*-*-*-*-*-*-*--|
-0-2-5-0-1-4-0-1-4-0-1-4---------0-2-5-0-1-4-0-1-4-0-1-4--|

----------------------------------------------------------|
----------------------------------------------------------|
----------------------------------------------------------|
----------------------------------------------------------|
-*-*-*-*-*-*-*-*-*-*-*-*---------*-*-*-*-*-*-*-*-*-*-*-*--|
-0-2-5-0-1-4-0-1-4-0-1-4---------0-2-5-0-1-4-0-1-4-0-1-4--|


0:46
----------------------------------------------------|
----------------------------------------------------|
----------------------------------------------------|
-**-----**-**-**-**-**-------**-----**-**-**-**-**--|
-00-----00-00-00-00-00-------00-----00-00-00-00-00--|
-00-----00-00-00-00-00-------00-----00-00-00-00-00--|

----------------------------------------------------|
----------------------------------------------------|
----------------------------------------------------|
-**-----**-**-**-**-**-------**-----**-**-**-**-**--|
-00-----00-00-00-00-00-------00-----00-00-00-00-00--|
-00-----00-00-00-00-00-------00-----00-00-00-00-00--|


0:54
GT1
-------------------------------------------------------------|
-------------------------------------------------------------|
-------------------------------------------------------------|
-**--------**-**-**-**-**----------**--------**-**-**-**-**--|
-00--------00-00-00-00-00----------00--------00-00-00-00-00--|
-00--------00-00-00-00-00----------00--------00-00-00-00-00--|
GT2
---------------------------------------------------------------|
-1010101010101010101010101010101010101010101010101010101010/-\-|
-1313131313131313131313131313131313131313131313131313131313/-\-|
---------------------------------------------------------------|
---------------------------------------------------------------|
---------------------------------------------------------------|

1:00
GT1
-------------------------------------------------------------|
-------------------------------------------------------------|
-------------------------------------------------------------|
-**--------**-**-**-**-**----------**--------**-**-**-**-**--|
-00--------00-00-00-00-00----------00--------00-00-00-00-00--|
-00--------00-00-00-00-00----------00--------00-00-00-00-00--|
GT2
---------------------------------------------------------------|
-10-7-7-10-9-7-10-9-7-10-9-7-9105-9-9115-9-9115-9-9115-9-9115-9|
-131010-131210-131210-13121012138121214812121481212148121214812|
---------------------------------------------------------------|
---------------------------------------------------------------|
---------------------------------------------------------------|

1:06
B
---------------------------------------------------------|
---------------------------------------------------------|
---------------------------------------------------------|
-----0-----0------0---------------0-----0-----0----------|
---0-----0------0----*-*-*-*----0-----0-----0---*-*-*-*--|
-1-----1------1------3-2-1-2--1-----1-----1-----3-1-3-4--|

---------------------------------------------------------|
---------------------------------------------------------|
---------------------------------------------------------|
-----0-----0------0---------------0-----0-----0----------|
---0-----0------0----*-*-*-*----0-----0-----0---*-*-*-*--|
-1-----1------1------3-2-1-2--1-----1-----1-----5-3-5-6--|


1:20

------------------------------------------------------|
------------------------------------------------------|
-----------___------------------------___-------------|
-^--------/   \------^------^--------/   \------^-----|
5-8-****-5-8-5-8-**-4-7-**-5-8-****-5-8-5-8-**-4-7-**-|
----0000---------00-----00-----0000---------00-----00-|

------------------------------------------|
------------------------------------------|
-----------___----------------------------|
-^--------/   \------^--------------------|
5-8-****-5-8-5-8-**-4-7-**-************---|
----0000---------00-----00-555555887777---|

------------------------------------------------------|
------------------------------------------------------|
-----------___------------------------___-------------|
-^--------/   \------^------^--------/   \------^-----|
5-8-****-5-8-5-8-**-4-7-**-5-8-****-5-8-5-8-**-4-7-**-|
----0000---------00-----00-----0000---------00-----00-|

----------------------------------------------|
----------------------------------------------|
-----------___--------------------------------|
-^--------/   \------^------------------------|
5-8-****-5-8-5-8-**-4-7-**-****************---|
----0000---------00-----00-5555558877773333---|

1:33
R
---------------------------------------------------------------|
------------____-------------------------____------------------|
--^--------/    \-------^------^--------/    \-------^---------|
-7-10-----7-10-7-10----6-9----7-10-----7-10-7-10----6-9--------|
------****----------**-----**------****----------**-----**-----|
------0000----------00-----00------0000----------00-----00-----|
L
------------------------------------------------------|
------------------------------------------------------|
-----------___------------------------___-------------|
-^--------/   \------^------^--------/   \------^-----|
5-8-****-5-8-5-8-**-4-7-**-5-8-****-5-8-5-8-**-4-7-**-|
----0000---------00-----00-----0000---------00-----00-|


R
-------------------------------------------------------------|
-----------____----------------------------------------------|
-^--------/    \------^----------------------****************|
7-10-----7-10-7-10---6-9---------------------5555558877773333|
-----****---------**-----**-****************-----------------|
-----0000---------00-----00-5555558877773333-----------------|
L
--------------------------------------------------------------|
--------------------------------------------------------------|
-----------___------------------------------------------------|
-^--------/   \------^----------------------------------------|
5-8-****-5-8-5-8-**-4-7-**-****************--****************-|
----0000---------00-----00-5555558877773333--5555558877773333-|

1:41
L                             B
---------------------------------------------------------------|
---------------------------------------------------------------|
---------------------------------------------------------------|
-***-***--*-*-*-*-***-***-*-*--***-***--*-*-*-*-***-***-*-*----|
-000-000--0-0-0-0-000-000-0-0--000-000--0-0-0-0-000-000-0-0----|
-000-000--0-0-0-0-000-000-0-0--000-000--0-0-0-0-000-000-0-0----|
R
---------------------------------------------------------------|
---------------------------------------------------------------|
---------------------------------------------------------------|
-***-***--*-*-*-*----------***-***--*-*-*-*-***-***-*-*-R-R----|
-000-000--0-0-0-0--)--)--)-000-000--0-0-0-0-000-000-0-0-*-*----|
-000-000--0-0-0-0-1--1--1--000-000--0-0-0-0-000-000-0-0-0-0----|

-----------------------------|
-----------------------------|
-----------------------------|
-***-***--*-*-*-*------------|
-000-000--0-0-0-0--)--)--)---|
-000-000--0-0-0-0-1--1--1----|


1:58
--------------------------------------------------------------------|
--------------------------------------------------------------------|
--------------------------------------------------------------------|
-*-*-*-***-***-**-*-*-*-***-***-**-*-*-*-***-***-**-*-*-*--*-*-*-*-*|
-2-2-2-222-222-22-4-4-4-444-444-44-5-5-5-555-555-55-9-9-9-10-7-7-5-5|
-2-2-2-222-222-22-4-4-4-444-444-44-5-5-5-555-555-55-9-9-9-10-7-7-5-5|

--------------------------------------------------------------------|
--------------------------------------------------------------------|
--------------------------------------------------------------------|
-*-*-*-***-***-**-*-*-*-***-***-**-*-*-*-***-***-**-*-*-*--*-*-*-*-*|
-2-2-2-222-222-22-4-4-4-444-444-44-5-5-5-555-555-55-9-9-9-10-7-7-5-5|
-2-2-2-222-222-22-4-4-4-444-444-44-5-5-5-555-555-55-9-9-9-10-7-7-5-5|


2:11
-----------------------------------------|
-----------------------------------------|
-----------------------------------------|
-2----4-5---4---7-----5----7--9--10--9---|
-2----4-5---4---7-----5----7--9--10--9---|
-2----4-5---4---7-----5----7--9--10--9---|

-----------------------------------------|
-----------------------------------------|
-----------------------------------------|
-2----4-5---4---7-----5----7--9--10--9---|
-2----4-5---4---7-----5----7--9--10--9---|
-2----4-5---4---7-----5----7--9--10--9---|


2:24
-----------------------------------------------------------|
-----------------------------------------------------------|
-----------------------------------------------------------|
-------------------------------------------------1---------|
-*-*-*-*-*-*-*-*-*-*-*-*-*-*-*-*-*-*-*-*-*-*-*-*-1---------|
-2-2-2-2-2-2-2-2-4-4-4-4-4-4-4-4-5-5-5-5-5-5-5-5-1---------|

-----------------------------------------------------------|
-----------------------------------------------------------|
-----------------------------------------------------------|
-------------------------------------------------1-LL--RR--|
-*-*-*-*-*-*-*-*-*-*-*-*-*-*-*-*-*-*-*-*-*-*-*-*-1-**--**--|
-2-2-2-2-2-2-2-2-4-4-4-4-4-4-4-4-5-5-5-5-5-5-5-5-1-11--11--|


2:37
----------------------------------------------------------------|
----------------------------------------------------------------|
----------------------------------------------------------------|
-**--**---*-****--*-**--**--******--**--******-**-**-**-********|
-00--00---0-0000--0-00--00--000000--00--000000-00-00-00-00000000|
-00--00---0-0000--0-00--00--000000--00--000000-00-00-00-00000000|

----------------------------------------------------------------|
----------------------------------------------------------------|
----------------------------------------------------------------|
-**--**---*-****--*-**--**--******--**--******-**-**-**-********|
-00--00---0-0000--0-00--00--000000--00--000000-00-00-00-00000000|
-00--00---0-0000--0-00--00--000000--00--000000-00-00-00-00000000|


2:51
-------------------------------------------------------------|
-------------------------------------------------------------|
-------------------------------------------------------------|
-*-*-*-*-*-*-*-*-*-*-*-*-*-*-*-*-*-*-*-*-*-*-*-*-*-*-*-*-*-*-|
---------------------------------------------------3-3-3-3-3-|
-1-4-1-4-1-4-3-4-2-5-2-5-2-5-4-5-1-4-1-4-1-4-3-4-3-0-0-0-0-0-|

-----------------------------------------------------------------|
-----------------------------------------------------------------|
-----------------------------------------------------------------|
-----------------------------------------------------------------|
-----------------------------------------------------------------|
114411441144334422552255225544551144114411443344331144334433-----|


3:04
L
-----------------------------------------------------------------|
-----------------------------------------------------------------|
-----------------------------------------------------------------|
-----------------------------------------------------------------|
-----------------------------------------------------------------|
-1-1-1-2-2-1-2-5-5-5-5-5-5-5-5-6-6-2-2-2-2-2-2-5-5-1-1-1-1-1-1-1-|


GT1
---------------------------------------------------------------|
---------------------------------------------------------------|
---------------------------------------------------------------|
*-*-*-*-*-*-*-*-*-*-*-*-*-*-*-*-*-*-*-*-*-*-*-*-*-*-*-*-*-*-*-*|
1-1-1-2-2-1-2-5-5-5-5-5-5-5-5-6-6-2-2-2-2-2-2-5-5-1-1-1-1-1-1-1|
1-1-1-2-2-1-2-5-5-5-5-5-5-5-5-6-6-2-2-2-2-2-2-5-5-1-1-1-1-1-1-1|
GT2
---------------------------------------------------------------|
---------------------------------------------------------------|
---------------------------------------------------------------|
---------------------------------------------------------------|
1-1-1-2-2-1-2-5-5-5-5-5-5-5-5-6-6-2-2-2-2-2-2-5-5-1-1-1-1-1-1-1|
---------------------------------------------------------------|

GT1
---------------------------------------------------------------|
---------------------------------------------------------------|
---------------------------------------------------------------|
*-*-*-*-*-*-*-*-*-*-*-*-*-*-*-*-*-*-*-*-*-*-*-*-*-*-*-*-*-*-*-*|
1-1-1-2-2-1-2-5-5-5-5-5-5-5-5-6-6-2-2-2-2-2-2-5-5-1-1-1-1-1-1-1|
1-1-1-2-2-1-2-5-5-5-5-5-5-5-5-6-6-2-2-2-2-2-2-5-5-1-1-1-1-1-1-1|
GT2
---------------------------------------------------------------|
---------------------------------------------------------------|
---------------------------------------------------------------|
---------------------------------------------------------------|
1-1-1-2-2-1-2-5-5-5-5-5-5-5-5-6-6-2-2-2-2-2-2-5-5-1-1-1-1-1-1-1|
---------------------------------------------------------------|


3:24
GT1
------------------------------------------------------------|
------------------------------------------------------------|
------------------------------------------------------------|
-*----****-*-*--*---*--*--*--*--*---***-*-*-*--******-*-*---|
-1----1121-2-5--5---2--4--2--4--6---666-5-2-1--111111-1-1---|
-1----1121-2-5--5---2--4--2--4--6---666-5-2-1--111111-1-1---|
GT2
---------------------------------------------------------------------|
15~---1515-16-15-16---19~19~~--19-16-19-16--20~-202020-19-16-19-16-15|
---------------------------------------------------------------------|
---------------------------------------------------------------------|
---------------------------------------------------------------------|
---------------------------------------------------------------------|

GT1
------------------------------------------------------------|
------------------------------------------------------------|
------------------------------------------------------------|
-*----****-*-*--*---*--*--*--*--*---***-*-*-*--******-*-*-*-|
-1----1121-2-5--5---2--4--2--4--6---666-5-2-1--111111-1-1-1-|
-1----1121-2-5--5---2--4--2--4--6---666-5-2-1--111111-1-1-1-|
GT2
---------------------------------------------------------------------|
15~---1515-16-15-16---19~19~~--19-16-19-16--20~-202020-19-16-19-16-15|
---------------------------------------------------------------------|
---------------------------------------------------------------------|
---------------------------------------------------------------------|
---------------------------------------------------------------------|

            
            
Suggest correction
Creating personal tab
Creating personal tab
You can edit any tab online and save it as your Personal.

You can edit, replace or remove any tab part or add personal notes – all changes will be seen only by you.

Personal tabs can be accessed anytime from any device, even offline.
Learn more »
Give kudos to tab author, rate the tab!
1 2 3 4 5
comments
print report bad tab
1 comment total.
0 reply
XXdevdogXX1928 71 Feb 10, 2013 02:01 PM

Nicely done.

guest
You may want to rate the tab now too:
select rating
Wanna post a correction for this tab? Suggest correction