Oops, an error
Loading. Please wait.

Colours Fade tab

version 1
version 1

Whole song

Interactive

6,345 views 3 this week
3 commentsread comments
1 2 3 4 5
x 3
add to favorites
×
Save as Personal and add changes to this tab that will be seen only by you. Learn more ›
×
You can save this tab as Personal to edit and correct it or add notes. All changes will be seen only by you. Learn more »
launch autoscroll
font size
0
reset
how to read this tab
guitar tuner
edit
Autoscroll
slow
fast
+/-
esc
set tempo
stop
Author
----------------------------------------------------------------------
                    Blood Red Shoes - Colours Fade
----------------------------------------------------------------------

Tuning: EADGBe

  (0:00)
e|-------------------------------------------------------------------|
B|-------------------------------------------------------------------|
G|-------------------------------------------------------------------|
D|-------------------------------------------------------------------| 4x
A|--7-7-7-7-7-7-7-7-8-8-8-8-8-8-8-8-3-3-3-3-3-3-3-3-1-1-1-1-1-1-1-1--|
E|--0-0-0-0-0-0-0-0-0-0-0-0-0-0-0-0-0-0-0-0-0-0-0-0-0-0-0-0-0-0-0-0--|

  (0:32)
e|-------------------------------------------------------------------|
B|-------------------------------------------------------------------|
G|-------------------------------------------------------------------|
D|-------------------------------------------------------------------| 4x
A|--7-7-7-7-7-7-7-7-7-7-7-7-7-7-7-7-3-3-3-3-3-3-3-3-1-1-1-1-1-1-1-1--|
E|--0-0-0-0-0-0-0-0-0-0-0-0-0-0-0-0-0-0-0-0-0-0-0-0-0-0-0-0-0-0-0-0--|

  (1:04)
e|-------------------------------------------------------------------|
B|-------------------------------------------------------------------|
G|-------------------------------------------------------------------|
D|-------------------------------------------------------------------| 2x
A|--2-2-2-2-2-2-2-2-2-2-2-2-2-2-2-2-3-3-3-3-3-3-3-3-7-7-7-7-7-7-7-7--|
E|--0-0-0-0-0-0-0-0-0-0-0-0-0-0-0-0-1-1-1-1-1-1-1-1-5-5-5-5-5-5-5-5--|

  (1:20)
e|-------------------------------------------------------------------|
B|-------------------------------------------------------------------|
G|-------------------------------------------------------------------|
D|--5-5-5-5-5-5-5-5-7-7-7-7-7-7-7-7-2-2-2-2-2-2-2-2-2-2-2-2-2-2-2-2--| 3x
A|--5-5-5-5-5-5-5-5-7-7-7-7-7-7-7-7-2-2-2-2-2-2-2-2-2-2-2-2-2-2-2-2--|
E|--3-3-3-3-3-3-3-3-5-5-5-5-5-5-5-5-0-0-0-0-0-0-0-0-0-0-0-0-0-0-0-0--|

  (1:44)
e|-------------------------------------------------------------------|
B|-------------------------------------------------------------------|
G|-------------------------------------------------------------------|
D|-------------------------------------------------------------------| 4x
A|--7-7-7-7-7-7-7-7-7-7-7-7-7-7-7-7-3-3-3-3-3-3-3-3-1-1-1-1-1-1-1-1--|
E|--0-0-0-0-0-0-0-0-0-0-0-0-0-0-0-0-0-0-0-0-0-0-0-0-0-0-0-0-0-0-0-0--|

  (2:17)
e|-------------------------------------------------------------------|
B|-------------------------------------------------------------------|
G|-------------------------------------------------------------------|
D|-------------------------------------------------------------------| 2x
A|--2-2-2-2-2-2-2-2-2-2-2-2-2-2-2-2-3-3-3-3-3-3-3-3-7-7-7-7-7-7-7-7--|
E|--0-0-0-0-0-0-0-0-0-0-0-0-0-0-0-0-1-1-1-1-1-1-1-1-5-5-5-5-5-5-5-5--|

  (2:33)
e|-------------------------------------------------------------------|
B|-------------------------------------------------------------------|
G|-------------------------------------------------------------------|
D|--5-5-5-5-5-5-5-5-7-7-7-7-7-7-7-7-2-2-2-2-2-2-2-2-2-2-2-2-2-2-2-2--| 4x
A|--5-5-5-5-5-5-5-5-7-7-7-7-7-7-7-7-2-2-2-2-2-2-2-2-2-2-2-2-2-2-2-2--|
E|--3-3-3-3-3-3-3-3-5-5-5-5-5-5-5-5-0-0-0-0-0-0-0-0-0-0-0-0-0-0-0-0--|

  (3:05)
e|-------------------------------------------------------------------|
B|-------------------------------------------------------------------|
G|-------------------------------------------------------------------|
D|------------------7-7-7-7------------------------------------------| 4x
A|--7-7-7-7-7-7-7-7---------7-7-7-7-8-8-8-8-8-8-8-8---------6-6-6-6--|
E|--0-0-0-0-0-0-0-0---------------------------------8-8-8-8----------|

  (3:37)
e|-------------------------------------------------------------------|
B|-------------------------------------------------------------------|
G|-------------------------------------------------------------------|
D|--5-5-5-5-5-5-5-5-7-7-7-7-7-7-7-7-2-2-2-2-2-2-2-2-2-2-2-2-2-2-2-2--| 10x
A|--5-5-5-5-5-5-5-5-7-7-7-7-7-7-7-7-2-2-2-2-2-2-2-2-2-2-2-2-2-2-2-2--|
E|--3-3-3-3-3-3-3-3-5-5-5-5-5-5-5-5-0-0-0-0-0-0-0-0-0-0-0-0-0-0-0-0--|

  (4:57)
e|-------------------------------------------------------------------|
B|-------------------------------------------------------------------|
G|-------------------------------------------------------------------|
D|--5---5-----5-5-5-7---7-----7-7-7-2---2-----2-2-2-2-2-2-2-2-2-2-2--| 3x
A|--5---5-----5-5-5-7---7-----7-7-7-2---2-----2-2-2-2-2-2-2-2-2-2-2--|
E|--3---3-----3-3-3-5---5-----5-5-5-0---0-----0-0-0-0-0-0-0-0-0-0-0--|

  (5:21)
e|-------------------------------------------------------------------|
B|-------------------------------------------------------------------|
G|----------4--------------6br---------------------------------------|
D|-------------------------------------------------------------------| 2x
A|------5---------------7----------\2~-------------------------------|
E|--3---------------5--------------\0~-------------------------------|

e|-------------------------------------------------------------------|
B|-------------------------------------------------------------------|
G|----------4--------------------------------------------------------|
D|-------------------------------------------------------------------|
A|------5---------------7----------\2~-------------------------------|
E|--3---------------5--------------\0~-------------------------------|

e|-------------------------------------------------------------------|
B|-------------------------------------------------------------------|
G|-------------------------------------------------------------------|
D|-------------------------------------------------------------------|
A|--5---------------7--------------\2~-------------------------------|
E|--3---------------5--------------\0~-------------------------------|

e|-------------------------------------------------------------------|
B|-------------------------------------------------------------------|
G|------4---------------6--------------------------------------------|
D|-------------------------------------------------------------------|
A|--5---------------7--------------\2~-------------------------------|
E|--3---------------5--------------\0~-------------------------------|



************************************

| /   slide up
| \   slide down
| h   hammer-on
| p   pull-off
| ~   vibrato
| +   harmonic
| x   Mute note
| b   Bend
| pb  Pre-bend
| br  Bend release
| pbr Pre-bend release
| brb Bend release bend

************************************

            
            
Suggest correction
Creating personal tab
Creating personal tab
You can edit any tab online and save it as your Personal.

You can edit, replace or remove any tab part or add personal notes – all changes will be seen only by you.

Personal tabs can be accessed anytime from any device, even offline.
Learn more »
Give kudos to tab author, rate the tab!
1 2 3 4 5
comments
print report bad tab
3 comments total.
0 reply
pie_maker_dvd 31 Mar 18, 2010 11:24 AM

Hello, you did great work on these blood red shoes new album tabs. :)

This one sounds great, but i think laura-mary plays it a little different. Check this video -> http://www.youtube.com/watch?v=6aRju5FCYBk

Anyway nice work. ;)

+2 reply
JackWhite 383 Jun 26, 2010 04:01 AM

Thats how she plays the verse live:

G---9--9--9--9--
D---9--9--9--9--
A---7--8--7--x--
E---------8--6--

0 reply
pie_maker_dvd 31 Sep 04, 2010 02:12 AM

JakcWhite: thats exactly what i meant ;)

guest
You may want to rate the tab now too:
select rating
Wanna post a correction for this tab? Suggest correction