Oops, an error
Loading. Please wait.

Say Something Say Anything tab

version 1
version 1

Whole song

Interactive

1,623 views 9 this week
2 commentsread comments
1 2 3 4 5
1 last vote to show rating
add to favorites
×
Save as Personal and add changes to this tab that will be seen only by you. Learn more ›
×
You can save this tab as Personal to edit and correct it or add notes. All changes will be seen only by you. Learn more »
launch autoscroll
font size
0
reset
how to read this tab
guitar tuner
edit
Autoscroll
slow
fast
+/-
esc
set tempo
stop
Author
Difficulty
Tabed by MattySen
Standerd Tuning
Guitar Effects: None (clean)

This is my first tab and the first song i have done by ear really.
These guys are an amazing band if youre and indie fanctice i recomend you check'em out.
Hope you like it:] 
Update: i did it upside down by misstake cuz im an egg :P, but have corrected it now

Intro        "13's"


B[-------------------------------------------------------------------------]
G[-------------------------------------------------------------------------]
D[----9-9----1313----------------------------------------------------------]
A[----x-x----xxxx-----7-7----7--7-7----------------------------------------]
E[----7-7----1111-----x-x----x--x-x----------------------------------------]
E[--------------------5-5----5--5-5----------------------------------------]

Intro part 2/Chours

E[-------------------------------------------------------------------------]
E[-------------------------------------------------------------------------]
B[---12121212--------------------------------------------------------------]
G[---12121212---12121212-12-------77-77-7-77-------------------------------]
D[---10101010---12121212-12-------77-7--7-77-------------------------------]
A[--------------10101010-10-------55-5--5-55-------------------------------]

Verse

If you didnt know (for novice's sake) you can play it in a chord like

D]-3-
A]-5-
E]-4-

E[-------------------------------------------------------------------------]
B[-------------------------------------------------------------------------]
G[-------------------------------------------------------------------------]
D[------3------------------------------------------------------------------]
A[----5---5------0---0----0---0------1---1---------------------------------]
E[-44-------4-33---3---33---3-----33---3-----------------------------------]

Bridige

"How long, how long, how long can you miss someone"
E[-------------------------------------------------------------------------]
B[-------------------------------------------------------------------------]
E[-------------------------------------------------------------------------]
E[----99999-7777--111111--1313131313---------------------------------------]
A[----xxxxx-xxxx--xxxxxx--xxxxxxxxxx---------------------------------------]
D[----77777-5555--9-9-9---1111111111---------------------------------------]


                          ^13s and 11s^

Bridige Part 2


E[-------------------------------------------------------------------------]
B[-------------------------------------------------------------------------]
G[-------------------------------------------------------------------------]
D[----99999-151515151515---------------------------------------------------]
A[----xxxxx-xxxxxxxxxxxx--Reapet--Till-End-Of Brigde-----------------------]
E[----77777-121212121212---------------------------------------------------]







           ;] Done p.s hit me up with any corrections or misstakes

            
            
Suggest correction
Creating personal tab
Creating personal tab
You can edit any tab online and save it as your Personal.

You can edit, replace or remove any tab part or add personal notes – all changes will be seen only by you.

Personal tabs can be accessed anytime from any device, even offline.
Learn more »
Give kudos to tab author, rate the tab!
1 2 3 4 5
comments
print report bad tab
2 comments total.
+1 reply
louis_carter3 10 Apr 19, 2008 04:56 AM

um.... this tab is upside down.....

0 reply
mattysen 112 Apr 20, 2008 05:30 AM

hahaa didnt notice

guest
You may want to rate the tab now too:
select rating
Wanna post a correction for this tab? Suggest correction