Oops, an error
Loading. Please wait.

You Bring Me Down tab

version 3
version 3

Whole song

Interactive

10,097 views 1 this week
4 commentsread comments
1 2 3 4 5
x 6
add to favorites
×
Save as Personal and add changes to this tab that will be seen only by you. Learn more ›
×
You can save this tab as Personal to edit and correct it or add notes. All changes will be seen only by you. Learn more »
launch autoscroll
font size
0
reset
how to read this tab
guitar tuner
edit
Autoscroll
slow
fast
+/-
esc
set tempo
stop
Tabbed by John McLaren of the Satsumas 
A tribute to the legend that is "MAVIS"
Contact me at: jf_mclaren@hotmail.com

verse

e|-------------------------------------------------------------------------|
B|----12-12----------------------------------------------------------------|
G|----xx-xx-12-12----------------------------------------------------------|
D|----10-10-10-10-12-12----------------------------------------------------|
A|----10-10-10-10-10-10----------------------------------------------------|
E|-------------------------------------------------------------------------|


Pre Chorus
e|-------------------------------------------------------------------------|
B|-------------------------------------------------------------------------|
G|-------------------------------------------------------------------------|
D|----------10----------12-10-----------10----------12---------------------|
A|----12-12----12-12-12-----------12-12----12-12-12----5x16----------------|
E|-------------------------------------------------------------------------|
x2

verse

e|-------------------------------------------------------------------------|
B|----12-12----------------------------------------------------------------|
G|----xx-xx-12-12----------------------------------------------------------|
D|----10-10-10-10-12-12----------------------------------------------------|
A|----10-10-10-10-10-10----------------------------------------------------|
E|-------------------------------------------------------------------------|


Pre Chorus
e|-------------------------------------------------------------------------|
B|-------------------------------------------------------------------------|
G|-------------------------------------------------------------------------|
D|----------10----------12-10-----------10----------12---------------------|
A|----12-12----12-12-12-----------12-12----12-12-12----5x16----------------|
E|-------------------------------------------------------------------------|
x2

Chorus
e|----0--------------------------------------------------------------------|
B|----5--------------------------------------------------------------------|
G|----5x16--12-12-14-14-12-12-14-14-12-12-14-14-12-12-14-14----------------|
D|-------------------------------------------------------------------------|
A|-------------------------------------------------------------------------|
E|-------------------------------------------------------------------------|



Interlude
e|-------------------------------------------------------------------------|
B|-------------------------------------------------------------------------|
G|-------------------------------------------------------------------------|
D|----10-10-10-10-10-10-10-10-12-12-12-12-12-12-12-12----------------------|
A|-------------------------------------------------------------------------|
E|-------------------------------------------------------------------------|

Chorus
e|----0--------------------------------------------------------------------|
B|----5--------------------------------------------------------------------|
G|----5x16--12-12-14-14-12-12-14-14-12-12-14-14-12-12-14-14----------------|
D|-------------------------------------------------------------------------|
A|-------------------------------------------------------------------------|
E|-------------------------------------------------------------------------|


Thats pretty much it, thanks for looking at my Tab, i've never tabbed a song here
before so thought I'd try it out. cheeeers x x
www.myspace.com/thesatsumas
www.bebo.com/thesatsumas

            
            
Suggest correction
Creating personal tab
Creating personal tab
You can edit any tab online and save it as your Personal.

You can edit, replace or remove any tab part or add personal notes – all changes will be seen only by you.

Personal tabs can be accessed anytime from any device, even offline.
Learn more »
comments
print report bad tab
4 comments total. Showing first comments.
0 reply
thelevellers 149 Oct 15, 2010 12:52 PM

Sounds good to me, except for the chord in the chorus, sounds a bit basssier to me, but I don't know what else you could play...

0 reply
bloodyguts 31 Nov 08, 2011 09:21 AM

I'm pretty sure the intro is wrong, it's not a million miles off at all, but there's another note in the bass which makes it a minor, I'm thinking of putting an E in it somewhere but it's hard, not too sure about intro.

However I'm pretty sure the chorus goes something like

e|--------------------------------------------------------|
B|--------------------------------------------------------|
G|--------12-12-14-14-12-12-14-14-12-12-14-14-12-12-14-14-|
D|-7------12-12-------12-12-------12-12-------12-12-------|
A|-7-x16--10-10-------10-10-------10-10-------10-10-------|
E|-5------------------------------------------------------|

But I think there's another note when you go to the "14" on G, but I can't for the life of me figure it out :L

0 reply
bloodyguts 31 Nov 08, 2011 09:24 AM

I think you play the "14" on the D string, when you do the chorus actually, so...

G|-12-12-14-14-12-12-14-14-|
D|-12-12-14-14-12-12-14-14-|
A|-10-10-------10-10-------|

Or something similar

guest
Wanna post a correction for this tab? Suggest correction