Oops, an error
Loading. Please wait.

Death Delirium tab

version 1
version 1

Whole song

Interactive

1,620 views 3 this week
no commentswrite comment
1 2 3 4 5
2 more votes to show rating
add to favorites
×
Save as Personal and add changes to this tab that will be seen only by you. Learn more ›
×
You can save this tab as Personal to edit and correct it or add notes. All changes will be seen only by you. Learn more »
launch autoscroll
font size
0
reset
how to read this tab
guitar tuner
edit
Autoscroll
slow
fast
+/-
esc
set tempo
stop
http://bloodbath.biz

Bloodbath - Death Delirium
From the Album Resurrection Through Carnage.
Transcribed by Jon (YourDeadGroom)
V 1.0

Notes: This is notated in E to make reading it less confusing, but each string
should be tuned down to: (lowest to highest) B, E, A, D, F#, B.
Notes with a '*' next to it indicate that it should be speed picked.
'h' = hammer on, 'p' = pull off.
'tr' = trill. Rapid series of pull-offs & hammer-ons between the notes
indicated, starting with the one in '()'.
'^' = string bend. Bend the note before the '^' up to the pitch of the note
in '()' after it.
Spacing and barlines are a rough approximation of rhythm only.
Riffs are only indicated the first time they are played, it's up to you to
figure out where they may get repeated.
The use of '||' indicates the end of a riff/section.


0:00 (lead)
E----------------------|-----------------------|
B----------------------|-----------------------|
G----------------------|-----------------------|
D--------8--7----------|--------10--8----------|
A-5--7-8------11-12-11-|-5--7-8-------10-11-10-|
E----------------------|-----------------------|

E---------------------|--------------------||
B---------------------|--------------------||
G---------------------|--------------------||
D--------8-7----------|--------10--8-------||
A-5--7-8-----11-12-11-|-5--7-8-------7-6-6-||
E---------------------|--------------------||


0:00 (lead harmony)
E-------------------------|-------------------------|
B---------11--10----------|---------13--11----------|
G-7--9-10--------13-14-13-|-7--9-10--------12-13-12-|
D-------------------------|-------------------------|
A-------------------------|-------------------------|
E-------------------------|-------------------------|

E-------------------------|-------------------------||
B---------11--10----------|---------11--10----------||
G-7--9-10--------13-14-13-|-7--9-10--------13-14-13-||
D-------------------------|-------------------------||
A-------------------------|-------------------------||
E-------------------------|-------------------------||


0:00 (rhythm)
E----------|---------|---------|---------||
B----------|---------|---------|---------||
G----------|---------|---------|---------||
D-2--------|-7---5---|-7-------|-7---6---||
A-5---2----|-5---3---|-5---2---|-5---4---||
E-----0----|---------|-----0---|-----4---||


0:34 (speed pick all) (play part in '()' first time through)
E---------------------------|-------------------------||
B---------------------------|-------------------------||
G---------------------------|---------5-4-3-----------||
D---2-4-5-3-5-6-5-3-0-2-3---|---2-4-5-------(5------)-||
A-------------------------1-|---------------(--6-5-4)-||
E-0-------------------------|-0-----------------------||


0:43 (lead) (notes in '()' are harmonics, should sound an 8ve higher than noted)
E---------------------------------------|--------------------------------||
B---------------------------------------|--------------------------------||
G------------------9--10--(10-10-10-10)-|--------------------------------||
D----9h10-9p7-9h10----------------------|---9h10-9p7-9h10-7--------------||
A-7-------------------------------------|-7-----------------8--(8-8-8-8)-||
E---------------------------------------|--------------------------------||


0:43 (rhythm)
E----------------|--------------------------||
B----------------|--------------------------||
G----------------|--------------------------||
D-----7----------|-----7--------------------||
A-2---5---8---5--|-2---5---8----------5-4-3-||
E-0---5---6---3--|-0---5---6--0-5-4-3-------||


1:12 (Harmony part in '()')
E-----------------------------||
B-----------------------------||
G-------(7-10-6-9-7-10-6-9-6)-||
D-----------------------------||
A--------5-8--4-7-5-8--4-7----||
E-6-0-0--------------------5--||


1:19
E--------------------------|-----------------------------------||
B--------------------------|---------------------tr(5)6--------||
G--------------------------|----------------------------tr(4)5-||
D--------------------------|-----------------7-8---------------||
A--------5-8-4-7-5-8-4-7---|-------5-8---7-8-------------------||
E-6-0-0------------------5-|-6-0-0-----5-----------------------||


1:31
E-----------------------------------|-------------------------||
B-----------------------------------|-------------------------||
G---------------------------4-------|-------------------------||
D-----------------------------3---3-|-----3-------8-----------||
A-*2--*1------*1--*0------2-----2---|-2---1---5---6---7---4---||
E---------*3----------*2------------|-0-------3---6---5---2---||


1:57 (rhythm)
E-----------------------------------||
B-----------------------------------||
G-----------------------------------||
D------------------9---7-------10---||
A-2-2-2-2-2-2-2-2--7---5---8---8----||
E-0-0-0-0-0-0-0-0----------6--------||


1:57 (lead)
E-12-------12-------12-------12-------12------|
B-15^(17)--15^(17)--15^(17)--15^(17)--15^(17)-|
G---------------------------------------------|
D---------------------------------------------|
A---------------------------------------------|
E---------------------------------------------|

E----------------------------------------------------------------------||
B----------------------------------------------------------------------||
G-12-11-12--14-12-14--15-14-15--17-15-17--18-17-18--19-18-19--21-19-21-||
D----------------------------------------------------------------------||
A----------------------------------------------------------------------||
E----------------------------------------------------------------------||


2:41 (lead, rhythm part in '()')
E--------------------------||
B--------------------------||
G--18-17-------17-16-------||
D--------------------------||
A-(7)----15-15-------15-15-||
E-(5)----------------------||


2:51 (lead)
E-------------------------------------------------------------------------||
B-------------------------------------------------------------------------||
G-18-17-------17-16-------18-17-------------14----------------------------||
D----------------------------------15-14-------17----15-14----14----------||
A-------15-15-------15-15-------15----------------15-------------17-------||
E----------------------------------------15----------------15-------15-15-||


2:51 (rhythm)
E----------------||
B----------------||
G----------------||
D------6---------||
A-3----4----7----||
E-1----4----5----||


5:04
E----------||
B----------||
G----------||
D----------||
A-2-2-2-2--||
E-0-0-0-0--||

            
            
Suggest correction
Creating personal tab
Creating personal tab
You can edit any tab online and save it as your Personal.

You can edit, replace or remove any tab part or add personal notes – all changes will be seen only by you.

Personal tabs can be accessed anytime from any device, even offline.
Learn more »
Give kudos to tab author, rate the tab!
1 2 3 4 5
comments
print report bad tab
guest
You may want to rate the tab now too:
select rating
Wanna post a correction for this tab? Suggest correction