Oops, an error
Loading. Please wait.
We have an official I Hope You Die tab made by UG professional guitarists. Check out the tab »
×
3,541 views 1 this week
1 commentread comment
1 2 3 4 5
1 last vote to show rating
add to favorites
×
Save as Personal and add changes to this tab that will be seen only by you. Learn more ›
×
You can save this tab as Personal to edit and correct it or add notes. All changes will be seen only by you. Learn more »
launch autoscroll
font size
0
reset
guitar tuner
edit
Autoscroll
slow
fast
+/-
esc
set tempo
stop
Author
Intro
G|-----------------|-----------------|-----------------|-----------------|
D|-----------------|-----------------|-----------------|-----------------|
A|-1-1-----------1-|-----------------|-4-4-----------4-|-----------------|
E|-----------------|-2-2-----------2-|-----------------|-4-4-----------4-|
 
G|-----------------|-----------------|-----------------|-----------------|
D|-----------------|-----------------|-----------------|-----------------|
A|-1-1-----------1-|-----------------|-4-4-----------4-|-----------------|
E|-----------------|-2-2-----------2-|-----------------|-4-4-4-4-4-4-4-4-|

G|-----------------|-----------------|-----------------|-----------------|
D|-----------------|-----------------|-----------------|-----------------|
A|-1-1-1-1-1-1-1-1-|-----------------|-4-4-4-4-4-4-4-4-|-----------------|
E|-----------------|-2-2-2-2-2-2-2-2-|-----------------|-4-4-4-4-4-4-4-4-|
 
G|-----------------|-----------------|-----------------|-----------------|
D|-----------------|-----------------|-----------------|-----------------|
A|-1-1-1-1-1-1-1-1-|-----------------|-4-4-4-4-4-4-4-4-|-----------------|
E|-----------------|-2-2-2-2-2-2-2-2-|-----------------|-4-4-4-4-4-4-4-4-|
 
G|-----------------|-----------------|-----------------|-----------------|
D|-----------------|-----------------|-----------------|-----------------|
A|-----------------|-1----1-1---3----|-4----4-4---6----|------------2----|
E|-2----2-2---4----|-----------------|-----------------|-4----4-4--------|

G|-----------------|-----------------|-----------------|-----------------|
D|-----------------|-----------------|-----------------|-----------------|
A|-1-1-1-1-1-1-1-1-|-----------------|-4-4-4-4-4-4-4-4-|-----------------|
E|-----------------|-2-2-2-2-2-2-2-2-|-----------------|-4-4-4-4-4-4-4-4-|

G|-----------------|-----------------|-----------------|-----------------|
D|-----------------|-----------------|-----------------|-----------------|
A|-1-1-1-1-1-1-1-1-|-----------------|-4-4-4-4-4-4-4-4-|-----------------|
E|-----------------|-2-2-2-2-2-2-2-2-|-----------------|-4-4-4-4-4-4-4-4-|

G|-----------------|-----------------|-----------------|-----------------|
D|-----------------|-----------------|-----------------|-----------------|
A|-1-1-1-1-1-1-1-1-|-----------------|-4-4-4-4-4-4-4-4-|-----------------|
E|-----------------|-2-2-2-2-2-2-2-2-|-----------------|-4-4-4-4-4-4-4-4-|

G|-----------------|-----------------|-----------------|-----------------|
D|-----------------|-----------------|-----------------|-----------------|
A|-1-1-1-1-1-1-1-1-|-----------------|-4-4-4-4-4-4-4-4-|-----------------|
E|-----------------|-2-2-2-2-2-2-2-2-|-----------------|-4-4-4-4-4-4-4-4-|

G|-----------------|-----------------|-----------------|-----------------|
D|-----------------|-----------------|-----------------|-----------------|
A|-1-1-1-1-1-1-1-1-|-----------------|-4-4-4-4-4-4-4-4-|-----------------|
E|-----------------|-2-2-2-2-2-2-2-2-|-----------------|-4-4-4-4-4-4-4-4-|

G|-----------------|-----------------|-----------------|-----------------|
D|-----------------|-----------------|-----------------|-----------------|
A|-1-1-1-1-1-1-1-1-|-----------------|-4-4-4-4-4-4-4-4-|-----------------|
E|-----------------|-2-2-2-2-2-2-2-2-|-----------------|-4-4-4-4-4-4-4-4-|

G|-----------------|-----------------|-----------------|-----------------|
D|-----------------|-----------------|-----------------|-----------------|
A|-1-1-1-1-1-1-1-1-|-----------------|-4-4-4-4-4-4-4-4-|-----------------|
E|-----------------|-2-2-2-2-2-2-2-2-|-----------------|-4-4-4-4-4-4-4-4-|

G|-----------------|-----------------|-----------------|-----------------|
D|-----------------|-----------------|-----------------|-----------------|
A|-1-1-1-1-1-1-1-1-|-----------------|-4-4-4-4-4-4-4-4-|-----------------|
E|-----------------|-2-2-2-2-2-2-2-2-|-----------------|-4-4-4-4-4-4-4-4-|

G|-----------------|-----------------|-----------------|-----------------|
D|-----------------|-----------------|-----------------|-----------------|
A|-1-1-1-1-1-1-1-1-|-----------------|-4-4-4-4-4-4-4-4-|-----------------|
E|-----------------|-2-2-2-2-2-2-2-2-|-----------------|-4-4-4-4-4-4-4-4-|

G|-----------------|-----------------|-----------------|-----------------|
D|-----------------|-----------------|-----------------|-----------------|
A|-1-1-1-1-1-1-1-1-|-----------------|-4-4-4-4-4-4-4-4-|-----------------|
E|-----------------|-2-2-2-2-2-2-2-2-|-----------------|-4-4-4-4-4-4-4-4-|

Chorus
G|-----------------|-----------------|-----------------|-----------------|
D|-----------------|-----------------|-----------------|-----------------|
A|-----------------|-----------------|-----------------|-----------------|
E|-1-1-1-1-1-1-1-1-|-2-2-2-2-2-2-2-2-|-4R--4R--4R--4R--|-4R--4R--4R--4R--|

G|-----------------|-----------------|-----------------|-----------------|
D|-----------------|-----------------|-----------------|-----------------|
A|-1-1-1-1-1-1-1-1-|-----------------|-4-4-4-4-4-4-4-4-|-----------------|
E|-----------------|-2-2-2-2-2-2-2-2-|-----------------|-4-4-4-4-4-4-4-4-|
 
G|-----------------|-----------------|-----------------|-----------------|
D|-----------------|-----------------|-----------------|-----------------|
A|-1-1-1-1-1-1-1-1-|-----------------|-4-4-4-4-4-4-4-4-|-----------------|
E|-----------------|-2-2-2-2-2-2-2-2-|-----------------|-4-4-4-4-4-4-4-4-|
 
Fig.1
G|-----------------|-----------------|-----------------|-----------------|
D|-----------------|-----------------|-----------------|-----------------|
A|-----------------|-1----1-1---3----|-4----4-4---6----|------------2----|
E|-2----2-2---4----|-----------------|-----------------|-4----4-4--------|

G|-----------------|-----------------|-----------------|-----------------|
D|-----------------|-----------------|-----------------|-----------------|
A|-1-1-1-1-1-1-1-1-|-----------------|-4-4-4-4-4-4-4-4-|-----------------|
E|-----------------|-2-2-2-2-2-2-2-2-|-----------------|-4-4-4-4-4-4-4-4-|

G|-----------------|-----------------|-----------------|-----------------|
D|-----------------|-----------------|-----------------|-----------------|
A|-1-1-1-1-1-1-1-1-|-----------------|-4-4-4-4-4-4-4-4-|-----------------|
E|-----------------|-2-2-2-2-2-2-2-2-|-----------------|-4-4-4-4-4-4-4-4-|

G|-----------------|-----------------|-----------------|-----------------|
D|-----------------|-----------------|-----------------|-----------------|
A|-1-1-1-1-1-1-1-1-|-----------------|-4-4-4-4-4-4-4-4-|-----------------|
E|-----------------|-2-2-2-2-2-2-2-2-|-----------------|-4-4-4-4-4-4-4-4-|

G|-----------------|-----------------|-----------------|-----------------|
D|-----------------|-----------------|-----------------|-----------------|
A|-1-1-1-1-1-1-1-1-|-----------------|-4-4-4-4-4-4-4-4-|-----------------|
E|-----------------|-2-2-2-2-2-2-2-2-|-----------------|-4-4-4-4-4-4-4-4-|

G|-----------------|-----------------|-----------------|-----------------|
D|-----------------|-----------------|-----------------|-----------------|
A|-1-1-1-1-1-1-1-1-|-----------------|-4-4-4-4-4-4-4-4-|-----------------|
E|-----------------|-2-2-2-2-2-2-2-2-|-----------------|-4-4-4-4-4-4-4-4-|

G|-----------------|-----------------|-----------------|-----------------|
D|-----------------|-----------------|-----------------|-----------------|
A|-1-1-1-1-1-1-1-1-|-----------------|-4-4-4-4-4-4-4-4-|-----------------|
E|-----------------|-2-2-2-2-2-2-2-2-|-----------------|-4-4-4-4-4-4-4-4-|

G|-----------------|-----------------|-----------------|-----------------|
D|-----------------|-----------------|-----------------|-----------------|
A|-1-1-1-1-1-1-1-1-|-----------------|-4-4-4-4-4-4-4-4-|-----------------|
E|-----------------|-2-2-2-2-2-2-2-2-|-----------------|-4-4-4-4-4-4-4-4-|

G|-----------------|-----------------|-----------------|-----------------|
D|-----------------|-----------------|-----------------|-----------------|
A|-1-1-1-1-1-1-1-1-|-----------------|-4-4-4-4-4-4-4-4-|-----------------|
E|-----------------|-2-2-2-2-2-2-2-2-|-----------------|-4-4-4-4-4-4-4-4-|

G|-----------------|-----------------|-----------------|-----------------|
D|-----------------|-----------------|-----------------|-----------------|
A|-1-1-1-1-1-1-1-1-|-----------------|-4-4-4-4-4-4-4-4-|-----------------|
E|-----------------|-2-2-2-2-2-2-2-2-|-----------------|-4-4-4-4-4-4-4-4-|

G|-----------------|-----------------|-----------------|-----------------|
D|-----------------|-----------------|-----------------|-----------------|
A|-1-1-1-1-1-1-1-1-|-----------------|-4-4-4-4-4-4-4-4-|-----------------|
E|-----------------|-2-2-2-2-2-2-2-2-|-----------------|-4-4-4-4-4-4-4-4-|

G|-----------------|-----------------|-----------------|-----------------|
D|-----------------|-----------------|-----------------|-----------------|
A|-----------------|-----------------|-----------------|-----------------|
E|-1-1-1-1-1-1-1-1-|-2-2-2-2-2-2-2-2-|-4R--4R--4R--4R--|-4R--4R--4R--4R--|

Main Riff
G|-----------------|-----------------|-----------------|-----------------|
D|-----------------|-----------------|-----------------|-----------------|
A|-1-1-1-1-1-1-1-1-|-----------------|-4-4-4-4-4-4-4-4-|-----------------|
E|-----------------|-2-2-2-2-2-2-2-2-|-----------------|-4-4-4-4-4-4-4-4-|
Main Riff
G|-----------------|-----------------|-----------------|-----------------|
D|-----------------|-----------------|-----------------|-----------------|
A|-1-1-1-1-1-1-1-1-|-----------------|-4-4-4-4-4-4-4-4-|-----------------|
E|-----------------|-2-2-2-2-2-2-2-2-|-----------------|-4-4-4-4-4-4-4-4-|


G|-----------------|-----------------|-----------------|-----------------|
D|-----------------|-----------------|-----------------|-----------------|
A|-1-1-----------1-|-----------------|-4-4-----------4-|-----------------|
E|-----------------|-2-2-----------2-|-----------------|-4-4-----------4-|
 
G|-----------------|-----------------|-----------------|
D|-----------------|-----------------|-----------------|
A|-1-1-----------1-|-----------------|-4-4-----------4-|
E|-----------------|-2-2-----------2-|-----------------|
 

            
            
Suggest correction
Creating personal tab
Creating personal tab
You can edit any tab online and save it as your Personal.

You can edit, replace or remove any tab part or add personal notes – all changes will be seen only by you.

Personal tabs can be accessed anytime from any device, even offline.
Learn more »
Give kudos to tab author, rate the tab!
1 2 3 4 5
comments
print report bad tab
1 comment total.
0 reply
RIPHemoglobin 10 Dec 21, 2008 09:16 PM

GOOD JOB!

guest
You may want to rate the tab now too:
select rating
Wanna post a correction for this tab? Suggest correction