Oops, an error
Loading. Please wait.
We have an official I Hope You Die tab made by UG professional guitarists. Check out the tab »
×
60,512 views 81 this week
8 commentsread comments
1 2 3 4 5
x 41
add to favorites
×
Save as Personal and add changes to this tab that will be seen only by you. Learn more ›
×
You can save this tab as Personal to edit and correct it or add notes. All changes will be seen only by you. Learn more »
launch autoscroll
font size
0
reset
how to read this tab
guitar tuner
edit
Autoscroll
slow
fast
+/-
esc
set tempo
stop
Author
Unregistered
[Intro]

Guitar 1:
e|---------------------------------|
B|---------------------------------|
G|-3--3-3--------------------------|
D|-3--3-3--4--4-4--3--3-3--6--6-6--|
A|-1--1-1--4--4-4--4--4-4--6--6-6--|
E|---------2--2-2----------4--4-4--|

Guitar 2:
e|--------------------------------------------------------|
B|--------------------------------------------------------|
G|--------------------------------------------------------|
D|-------3-------3------4------4-------3--3--------6-----6|
A|-1-1-1----1-1------------------4-4-4---4----------------|
E|-----------------2-2-2---2-2---------------4-4-4---4-4--|


[Pre-Verse]

e|---------------------------------------------------------------------|
B|---------------------------------------------------------------------|
G|-3-3-3-3-3-3-3-3-----------------------------------------------------|
D|-3-3-3-3-3-3-3-3--4-4-4-4-4-4-4-4--3-3-3-3-3-3-3-3--6-6-6-6-6-6-6-6--|
A|-1-1-1-1-1-1-1-1--4-4-4-4-4-4-4-4--4-4-4-4-4-4-4-4--6-6-6-6-6-6-6-6--|
E|------------------2-2-2-2-2-2-2-2-------------------4-4-4-4-4-4-4-4--|

e|-----------------------------------------|
B|-----------------------------------------|
G|--3--3-5-6--6-8-10--10-11-13-------------|
D|-----------------------------------------|
A|-----------------------------------------|
E|-----------------------------------------|


[Verse]
(muted)

e|---------------------------------------------------------------------|
B|---------------------------------------------------------------------|
G|-3-3-3-3-3-3-3-3-----------------------------------------------------|
D|-3-3-3-3-3-3-3-3--4-4-4-4-4-4-4-4--3-3-3-3-3-3-3-3--6-6-6-6-6-6-6-6--|
A|-1-1-1-1-1-1-1-1--4-4-4-4-4-4-4-4--4-4-4-4-4-4-4-4--6-6-6-6-6-6-6-6--|
E|------------------2-2-2-2-2-2-2-2-------------------4-4-4-4-4-4-4-4--|


[Pre-Chorus]

e|----------------------------------------------------------------------------|
B|----------------------------------------------------------------------------|
G|----------------------------------------10-10--10-11-10-8-10-10--10-11-10-8-|
D|-3-3-3-3-3-3-3-3--4------4-4-4-4-4-4-4--------------------------------------|
A|-3-3-3-3-3-3-3-3--4------4-4-4-4-4-4-4--------------------------------------|
E|-1-1-1-1-1-1-1-1--2------2-2-2-2-2-2-2--------------------------------------|

e|-----------------------------------------------------------------------|
B|-----------------------------------------------------------------------|
G|-----------------------------------10-10--10-11-10-8-10----------------|
D|-3-3-3-3-3-3-3-3--4-4-4-4-4-4-4-4--------------------------------------|
A|-3-3-3-3-3-3-3-3--4-4-4-4-4-4-4-4--------------------------------------|
E|-1-1-1-1-1-1-1-1--2-2-2-2-2-2-2-2--------------------------------------|

            
            
Suggest correction
Creating personal tab
Creating personal tab
You can edit any tab online and save it as your Personal.

You can edit, replace or remove any tab part or add personal notes – all changes will be seen only by you.

Personal tabs can be accessed anytime from any device, even offline.
Learn more »
comments
print report bad tab
8 comments total. Showing first comments.
+1 reply
guitarghetto 35 Sep 18, 2003 08:00 PM

damn. finally someone nailed the best BHG song. Props

0 reply
GnArKiLL 10 Feb 03, 2004 07:00 PM

Nice Tab A+ from me. (4g0t to log in)

0 reply
nofx_2525 1,493 Sep 04, 2005 08:00 PM

ok

guest
Wanna post a correction for this tab? Suggest correction