Oops, an error
Loading. Please wait.
We have an official Screwing You On The Beach At Night tab made by UG professional guitarists. Check out the tab »
×

Screwing You On The Beach At Night intro tab

4,205 views 3 this week
5 commentsread comments
1 2 3 4 5
x 4
add to favorites
×
Save as Personal and add changes to this tab that will be seen only by you. Learn more ›
×
You can save this tab as Personal to edit and correct it or add notes. All changes will be seen only by you. Learn more »
launch autoscroll
font size
0
reset
how to read this tab
guitar tuner
edit
Autoscroll
slow
fast
+/-
esc
set tempo
stop
Author
Difficulty
-----------------------------------------------------------------------------
Screwing You On The Beach At Night - Bloodhound Gang
-----------------------------------------------------------------------------
Tuning : standard
Intro Guitar

e----5-7-5------------------------------------|
B--7--------7--5-7-8--7--------------7-7--5---|
G-----------------------7-----6-7-6-----------|
D--------------------------9------------------|
A---------------------------------------------|
E---------------------------------------------|


e----5-7-5------------------------------------|
B--7--------7--5-7-8--7--------------7-7--5---|
G-----------------------7-----6-7-6-----------|
D--------------------------9------------------|
A---------------------------------------------|
E---------------------------------------------|


I hope you like it :)

            
            
Suggest correction
Creating personal tab
Creating personal tab
You can edit any tab online and save it as your Personal.

You can edit, replace or remove any tab part or add personal notes – all changes will be seen only by you.

Personal tabs can be accessed anytime from any device, even offline.
Learn more »
comments
print report bad tab
5 comments total. Showing first comments.
0 reply
mat2317 50 Jul 22, 2007 11:11 AM

to me this sounds better...

e----5-7-5------------------------------------|
B--7--------7--5-7-8--7-----------------------|
G-----------------------7-----6-7-6-----------|
D--------------------------9---------7-7--4---|
A---------------------------------------------|
E---------------------------------------------|

0 reply
MasterKeks 52 Jul 30, 2007 01:43 AM

I think, it sounds better the way gruchopower posted it. I like it! Thx a lot!

+3 reply
metalist86435 10 May 26, 2008 10:34 AM

e----5-7-5------------------------------------|
B--7--------7--5-7-8--7-----------------------|
G-----------------------7-----6-7-6-----------|
D--------------------------9---------7--------|
A---------------------------------------9--7--|
E---------------------------------------------|

guest
You may want to rate the tab now too:
select rating
Wanna post a correction for this tab? Suggest correction