Oops, an error
Loading. Please wait.

Straight Hate tab

version 1
version 1

Whole song

Interactive

2,543 views 1 this week
5 commentsread comments
1 2 3 4 5
x 3
add to favorites
×
Save as Personal and add changes to this tab that will be seen only by you. Learn more ›
×
You can save this tab as Personal to edit and correct it or add notes. All changes will be seen only by you. Learn more »
launch autoscroll
font size
0
reset
how to read this tab
guitar tuner
edit
Autoscroll
slow
fast
+/-
esc
set tempo
stop
Author
Difficulty
Atrist: Bloodsimple
Song: Straight Hate
Album: A Cruel World 
Tunning: Drop A# (A# F A# D# G C))
Tabber: Majin Gaara

This was a very easy song to tab by ear but anyways without further
ado I bring you the first single of of bloosimples ablum!

Tab Legend:
V - Vibrato
. - Palm Mute

INTRO

C |------------------------------------|
G |------------------------------------|
D#|------------------------------------|
A#|------------------------------------|
F |-2-1-0-3--0-2-3-4-------------------|
A#|-2-1-0-3--0-2-3-4-0-3-0-1-0-666-----| X3
     
|-------------------------------|
|-------------------------------|
|-------------------------------|
|-------------------------------|
|-------------------------------|
|-2-1-0-3--2-3-4-3-3-1-1-66-----| 

VERSE
(Let ring throughout)
|-----------------------------------------|
|-----------------------------------------|
|-----------------------------------------|
|-----------------------------------------|
|---5------5--------6--------5------------|
|-----------------------------------------| X2


PRE CHORUS
Pickslide right before prechorus.
|------------------------------------|
|------------------------------------|
|------------------------------------|
|------------------------------------|
|-0-0-0-3-3-3-5-5-5-3-3-3-6-6-6-5-3--|
|-0-0-0-3-3-3-5-5-5-3-3-3-6-6-6-5-3--| X4

CHORUS

Play the intro x1

VERSE X2

PRE CHORUS X4

CHORUS X2 

BRIDGE
|------------------------|
|------------------------|
|------------------------|
|------------------------|
|-0-0--0-0-0-0-0--0--0---|
|-0-0--0-0-0-0-0--0--0---| X8


|-----------------------|
|-----------------------|
|-----------------------|
|-----------------------|
|-3---3---0---2-----0---|
|-3---3---0---2-----0---| 

CHORUS X2 (Let the last chord ring)

OUTRO 

|----------------------------------------------|
|----------------------------------------------|
|----------------------------------------------|
|----------------------------------------------|
|-2--1--0--3--0--2--3--4-----------------------|
|-2--1--0--3--0--2--3--4--0--3--0--1--0--6-6V--| X3
    .  .  .  .  .  .  .  .  .  .  .  .  .  . .

|----------------------------------------|
|----------------------------------------|
|----------------------------------------|
|----------------------------------------|
|----------------------------------------|
|-2--1--0--3--2--3--4--3--3--1--1--6-6V--| 
  .  .  .  .  .  .  .  .  .  .  .  . .  

|----------------------------------------------|
|----------------------------------------------|
|----------------------------------------------|
|----------------------------------------------|
|-2--1--0--3--0--2--3--4-----------------------|
|-2--1--0--3--0--2--3--4--0--3--0--1--0--6-6V--| X3
    .  .  .  .  .  .  .  .  .  .  .  .  .  . .

(at this last part right after you hit the open chord
SLOWLY press down on your wammy bar to get that
fading lower effect)
|---------------------------------------------|
|---------------------------------------------|
|---------------------------------------------|
|------------------------------------------0--|
|------------------------------------------0--|
|-2--1--0--3--2--3--4--3--3--1--1--6-6-6-6-0--| 
  .  .  .  .  .  .  .  .  .  .  .  . . . .


            
            
Suggest correction
Creating personal tab
Creating personal tab
You can edit any tab online and save it as your Personal.

You can edit, replace or remove any tab part or add personal notes – all changes will be seen only by you.

Personal tabs can be accessed anytime from any device, even offline.
Learn more »
Give kudos to tab author, rate the tab!
1 2 3 4 5
comments
print report bad tab
5 comments total. Showing first comments.
0 reply
Emericask8r3506 155 Nov 03, 2006 03:14 PM

the PRE CHORUS should be...
Pickslide right before prechorus.
|-----------------------------------------|
|-----------------------------------------|
|-7-7-7-----------------------------------|
|-x-x-x-----------------------------------|
|-5-5-5-0-0-0-3-3-3-5-5-5-3-3-3-6-6-6-5-3-|
|-------0-0-0-3-3-3-5-5-5-3-3-3-6-6-6-5-3-| X4
other than that pretty nice tab 4 *'s

0 reply
Old Vendetta\m/ 10 Aug 20, 2007 11:40 AM

how the hell am i supposed to tune my guitar to Drop A#? thats insane

0 reply
ParkerScks 41 Sep 10, 2007 05:48 AM

buy some larger strings go into a guitar shop and ask for "slinkey but not slinkey guitar strings" they tune into anything! standerd or one step up!!! or all way down to drop G there kool

guest
You may want to rate the tab now too:
select rating
Wanna post a correction for this tab? Suggest correction