Oops, an error
Loading. Please wait.

Charlemagne tab

version 1
version 1

Whole song

9,661 views 72 this week
1 commentread comment
1 2 3 4 5
x 9
add to favorites
×
Save as Personal and add changes to this tab that will be seen only by you. Learn more ›
×
You can save this tab as Personal to edit and correct it or add notes. All changes will be seen only by you. Learn more »
launch autoscroll
font size
0
reset
how to read this tab
guitar tuner
edit
Autoscroll
slow
fast
+/-
esc
set tempo
stop
Author
Charlemagne by Blossoms

This is my first ever tab. I tabbed this by ear and sounds pretty accurate to me.

This is my favourite song at the moment and since there were not many tabs for it I thought I'd make my own.
Enjoy!

If you find anything I've missed or spot any mistakes please leave a comment.


[Intro]
                             Am                 G               F               G
e|----------------------------------------------------------------------------------|
B|----------------------------------------------------------------------------------|
G|---7--------7---9---7-------------9---7---9------------7--------------------------|  x4
D|-------10--------------10---7-----------------5-----------10---------7---10---5---|
A|--------------------------------------------------------------8-------------------|
E|----------------------------------------------------------------------------------|
                             Am
e|-------------------------------------------|
B|-------------------------------------------|
G|---7--------7---9---7----------------------|
D|-------10--------------10---7--------------|
A|-------------------------------------------|
E|-------------------------------------------|


[Verse]

Am    G              F          G
Hello hello, You put love in my head
Am       G          F       G
I know I know, It's made of lead
Am    G      F              G
Hello hello, Science came a kingdom reigned
Am    G         F             G
Below below, My Charlemagne


[Chorus]

                         Am                G           F            G
    And the river always flows   So if you go   I will know  By the rain
e|---------------------------------------------------------------------------|
B|---------------------------------------------------------------------------|
G|---7------7---9---7------------7---9---7------7----------------------------|
D|------10------------10----7---------------5------10--------7---10---5------|
A|------------------------------------------------------8--------------------|
E|---------------------------------------------------------------------------|

                       Am                  G    F     G
              My Charlemange
e|---------------------------------------------------------------------------|
B|---------------------------------------5----5----5-------------------------|
G|---7------7---9---7-------------------7b9--7b9--7b9----7---5---------------|
D|------10------------10----7------------------------------------7-----------|
A|---------------------------------------------------------------------------|
E|---------------------------------------------------------------------------|


[Verse]

Am    G            F            G
Hello hello, Mars, tried, hide, cried, died
Am         G           F           G
Inside the snow in the winter
Am    G          F                G
Hello hello, The doctors knew, Prescribed me you
Am    G          F            G
Below below, The amber sky


[Chorus]

                           Am               G             F            G
      And the river always flows  So if you go     I will know  By the rain 
 e|---------------------------------------------------------------------------|
 B|---------------------------------------------------------------------------|
 G|----7------7---9---7-----------9---7---9--------7--------------------------|
 D|-------10-------------10--7---------------5--------10--------7---10---5----|
 A|-------------------------------------------------------8-------------------|
 E|---------------------------------------------------------------------------|

                   Am                G    F     G
           My Charlemagne
 e|---------------------------------------------------------------------------|
 B|--------------------------------5----5----5--------------------------------|
 G|----7------7---9---7-----------7b9--7b9--7b9-------------------------------|
 D|-------10-------------10--7------------------------------------------------|
 A|---------------------------------------------------------------------------|
 E|---------------------------------------------------------------------------|

                         Am               G              F                     G
    And the river always flows   Tears of gold   Left me cold  Do you feel the same
 e|---------------------------------------------------------------------------|
 B|---------------------------------------------------------------------------|
 G|----7------7---9---7------------9---7---9-------7--------------------------|
 D|-------10-------------10--7------------------------10------7---10---5------|
 A|-------------------------------------------------------8-------------------|
 E|---------------------------------------------------------------------------|

                      Am              G     F     G
             My Charlemagne
 e|---------------------------------------------------------------------------|
 B|---------------------------------5-----8-----10----------------------------|
 G|----7-------7---9---7-----------7b9--10b12--12b14--------------------------|
 D|-------10------------------------------------------------------------------|
 A|---------------------------------------------------------------------------|
 E|---------------------------------------------------------------------------|

 
[Interlude]
  (PALM MUTED)

 e|--------------------------------------------------------------------------------------|
 B|--------------------------------------------------------------------------------------|
 G|--------------------------------------------------------------------------------------|  x4
 D|---------------------------10-------------------------------------------10-9----------|
 A|---12-------12-------10-12------12-10-12--------12-------12-------10-12------10-12----|
 E|--------------------------------------------------------------------------------------|


[Bridge]

      F                  Em
Don't go if only I could show you
      F                  Em
Don't go if only I could show you
      F                  Em
Don't go if only I could show you
      F                  G
Don't go if only I could show you



[Chorus]

                         Am               G          F            G
    And the river always flows  So if you go  I will Know  By the rain
 e|--------------------------------------------------------------------------------------|
 B|--------------------------------------------------------------------------------------| 
 G|--7------7---9---7-----------9---7---9------7-----------7---10---5--------------------|
 D|-----10-------------10---7--------------5------10-------------------------------------|
 A|---------------------------------------------------8----------------------------------|
 E|--------------------------------------------------------------------------------------|

                      Am                      G     F      G
              My Charlemagne
 e|--------------------------------------------------------------------------------------|
 B|-----------------------------------------5-----5-----5--------------------------------|
 G|---7------7---9---7---------------------7b9---7b9---7b9-------------------------------|
 D|-----10------------------10---7-------------------------------------------------------|
 A|--------------------------------------------------------------------------------------|
 E|--------------------------------------------------------------------------------------|

                          Am              G             F                     G
     And the river always flows  Tears of gold  Left me cold  Do you feel the same
 e|--------------------------------------------------------------------------------------|
 B|--------------------------------------------------------------------------------------|
 G|---7-------7---9---7-----------9---7---9-------7----------------7---10---5------------|
 D|-------10-------------10--7---------------5-------10----------------------------------|
 A|------------------------------------------------------8-------------------------------|
 E|--------------------------------------------------------------------------------------|

                    Am                G      F        G
            My Charlemagne                      Charlemagne
 e|--------------------------------------------------------------------------------------|
 B|----------------------------------5------8------10------------------------------------|
 G|---7------7---9---7--------------7b9---10b12---12b14----------------------------------|
 D|------10-------------10---7-----------------------------------------------------------|
 A|--------------------------------------------------------------------------------------|
 E|--------------------------------------------------------------------------------------|


[Outro]

      Am    G       F       G                  Am      G        F        G
 e|----------------------------------------------------------------------12--------------|
 B|---10---------------------13---12------------10-----------------------------12--------|
 G|--------------9---10-------------------------------------9---10-----------------------|  x2
 D|--------------------------------------------------------------------------------------|
 A|--------------------------------------------------------------------------------------|
 E|--------------------------------------------------------------------------------------|


            
            
Suggest correction
Creating personal tab
Creating personal tab
You can edit any tab online and save it as your Personal.

You can edit, replace or remove any tab part or add personal notes – all changes will be seen only by you.

Personal tabs can be accessed anytime from any device, even offline.
Learn more »
comments
print report bad tab
1 comment total.
0 reply
Robbietwiggo 10 Aug 23, 2017 06:04 PM

Great tab well done

guest
You may want to rate the tab now too:
select rating
Wanna post a correction for this tab? Suggest correction